¿hace Falta Más Dolor?, Deunoenuno (tablatura)

Autor: alex16mtj | 37305 visualizaciones

esta es una cancion de unoenuno una buena banda es la primera k ago y la primera de esta banda espero les guste
(afinacion de 6ta cuerda en (re)


intro

e|----------------------------------------------------|
b|----------------------------------------------------|
g|----------------------------------------------------|
d|-------------9-----------------------------------9--|
a|--------9h11----------9h11-----------------9h11-----|
d|--11--11-------11--11-------11--11--11--11----------|

e|-----------------------------|
b|-----------------------------|
g|-----------------------------|  (X2)
d|----------------11--9--------|
a|---------9h11-----------11---|
d|--11--11---------------------|

e|--x---------x--------x--------x--------
b|--x---------x--------x--------x--------
g|--x---------x--------x--------x--------
d|--11--(x9)--9--(x9)--7--(x9)--9--(x9)--
a|--11--------9--------7--------9--------
d|--11--------9--------7--------9--------

pre-coro

e|--x--------------------------------|
b|--x--------------------------------|
g|--x----------------------9---11----|
d|--13--(x20)--------9h11------------|
a|--11---------0--0------------------|
d|--11-------------------------------|

coro

e|--x---------x---------x---------x---------|
b|--x---------x---------x---------x---------|
g|--x---------x---------x---------x---------|
d|--2--(x12)--4--(x12)--6--(x12)--7--(x12)--| (x2)
a|--2---------4---------6---------7---------|
d|--2---------4---------6---------7---------|


e|-----------------------------------------|
b|-----------------------------------------|
g|-----------------------------------------|
d|-------------9--------------11--9--------|
a|--------9h11----------9h11---------11----|
d|--11--11-------11--11--------------------|

verso 3

e|--x---x-----x----------x----x---x---|
b|--x---x-----x----------x----x---x---|
g|--x---x-----x----------x----x---x---|
d|--13--13----13---------13--13---13--|
a|--11--11----11---------11--11---11--|
d|--11--11----11---------11--11---11--|


pre-coro

e|--x--------------------------------|
b|--x--------------------------------|
g|--x----------------------9---11----|
d|--13--(x20)--------9h11------------|
a|--11---------0--0------------------|
d|--11-------------------------------|


coro

e|--x---------x---------x---------x---------|
b|--x---------x---------x---------x---------|
g|--x---------x---------x---------x---------|
d|--2--(x12)--4--(x12)--6--(x12)--7--(x12)--| (x2)
a|--2---------4---------6---------7---------|
d|--2---------4---------6---------7---------|


e|-----------------------------------------|
b|-----------------------------------------|
g|-----------------------------------------|
d|-------------9--------------11--9--------|
a|--------9h11----------9h11---------11----|
d|--11--11-------11--11--------------------|


break

e|--x-----x--x----x---x----------x---x--x---x--x---------|
b|--x-----x--x----x---x----------x---x--x---x--x---------|
g|--x-----x--x----x---x----------x---x--x---x--x---------| (x2)
d|--11---11--11---11--11--(x2)---7---7--7---7--7--(x2)---|
a|--11---11--11---11--11---------7---7--7---7--7---------|
d|--11---11--11---11--11---------7---7--7---7--7---------|

coro

e|--x---------x---------x---------x---------|
b|--x---------x---------x---------x---------|
g|--x---------x---------x---------x---------|
d|--2--(x12)--4--(x12)--6--(x12)--7--(x12)--| (x2)
a|--2---------4---------6---------7---------|
d|--2---------4---------6---------7---------|

e|-----------------------------------------|
b|-----------------------------------------|
g|-----------------------------------------|
d|-------------9--------------11--9--------|
a|--------9h11----------9h11---------11----|
d|--11--11-------11--11--------------------|


break-final

e|--x-----x--x----x---x----------x---x--x---x--x---------|
b|--x-----x--x----x---x----------x---x--x---x--x---------|
g|--x-----x--x----x---x----------x---x--x---x--x---------| (x2)
d|--11---11--11---11--11--(x2)---7---7--7---7--7--(x2)---|
a|--11---11--11---11--11---------7---7--7---7--7---------|
d|--11---11--11---11--11---------7---7--7---7--7---------|

espero y les guste cualquier duda comenten...
Calificar esta versión:
Aviso: Este fichero es trabajo propio de su transcriptor y representa su interpretación personal de la canción. El material contenido en esta página es para exclusivo uso privado, por lo que se prohibe su reproducción o retransmisión, así como su uso para fines comerciales.