Quítame Los Ojos, Desaloon (bajo)

Autor: Anónimo | 43024 visualizaciones

Esta es la primera transcripción que subo a la pagina.
Esta canción, a mi parecer
es una de las mejores del album, muuuuy buena.
Puedo decir que el tab esta un 95% completo,
traten de escuchar la canción para que cachen el ritmo...,
tienen que escucharla muy bien pa cachar todo el tab...
pero = les va a servir, espero
Grande De saloon!!!


Intro (solo el bajo)

G------------------------------
D------------------------------
A--------------5---------0--2--
E--7--7--5--7------2--2--------

00:06 (entra lo demás)

G-------------------------------------------------------
D----------------5--------------------------------------
A-7-7-----5--7------7/5----------------5--------0--2--5-   (x4)
E------7--------------------7--7--5--7-----2--2---------

Verso

G--------------------------------------------------------
D----------------5---------------------------------------
A-7-7-----5--7------7/5-----------------5--------0--2--5-   (x3)
E------7--------------------7--7--5--7-----2--2----------

G--------------------------------------------------------
D----------------5---------------------------------------
A-7-7-----5--7------7/5-----------------5--------0--2--4-
E------7--------------------7--7--5--7-----2--2----------


Pre coro

G---------------------------------
D---------------------------------
A--5-----2--------5-----1---------
E-----3--------------3-------3----

Coro (quizás haya algunas variaciones, pero esto es lo que escucho)
                                                      _
G----------------------------------------------------
D----------------------------------------------------  |
A----------------------------------------------------  |
E-7-7-7-7-7-7-7-7--5-5-5-5-5-5-5-5--0-0-0-0-0-0-0-0--  |
                                                       >x2
G---------------------                                 |
D---------------------                                 |
A---------7-77-7-7----                                 |
E-6-6-6-6-------------                                _/

(aquí se toca = que en el intro)

G------------------------------
D------------------------------
A--------------5---------0--2--
E--7--7--5--7------2--2--------

G------------------------------------------------------
D----------------5-------------------------------------
A-7--7-----5--7-----7/5---------------5--------0--2--5-   (x2)
E-------7-----------------7--7--5--7-----2--2----------

Verso
= que arriba (x4)

Pre coro (x1)

Coro (x4)

Interludio (02:58)

G---------------------------------------------
D---------------------------------------------
A---7-7-7-7-7-7-7-7--5-5-5-5-5-5-5-5----------  (x2)
E---------------------------------------------

G---------------------------------------------
D---------------------------------------------
A---------------------------------------------
E---3-3-3-3-3-3-3-3--6-6-6-6-6-6-6-6----------

Coro (x8)

Luego termina en esto, se repite varias veces

G----------------
D----------------
A-------7-77-7-7-
E-6-6-6----------

termina en

E-----7----.

Cualquier corrección aca: fdo.pizarro05@gmail.com
Calificar esta versión:
Aviso: Este fichero es trabajo propio de su transcriptor y representa su interpretación personal de la canción. El material contenido en esta página es para exclusivo uso privado, por lo que se prohibe su reproducción o retransmisión, así como su uso para fines comerciales.