We'll Be A Dream, Demi Lovato (acordes)

Autor: RheneRuiz | 24242 visualizaciones

addoefsosmfm


Intro:

               A                                       D
e|---------0-----------0----------|  |--------0-------0-----|
B|---2-----------2----------------|  |---3---------3--------|
G|------2-----2-----2-----2-------|  |------2---2-------2---| x2
D|--------------------------------|x2|----------------------|
A|--------------------------------|  |----------------------|
E|--------------------------------|  |----------------------|

                    A                   D
e|---------0-----------0----------0-----------0----------|
B|---2-----------2-----------2----------3----------------|
G|------2-----2-----2-----2-----2----2-----2-------------| 
D|-------------------------------------------------------|  
A|-------------------------------------------------------|
E|-------------------------------------------------------|

               E                                        
e|---------0-----------0----------|     
B|---0-----------0----------------|     
G|------1-----1-----1-----1-------| x2
D|--------------------------------|    
A|--------------------------------|   
E|--------------------------------| 



Do you remember the nights 
                    
we'd stay up just laughing 
             
Smiling for hours at anything 
             
Remember the nights 
                
We drove around crazy in love 

         D     E    A 
When the lights go out 
         D      E     A 
We'll be safe and sound 
             D              E
We'll take control of the world 
          F#m       A          D
Like it's all we have to hold on to 
          E      A 
And we'll be a dream 

D      A      E

A                       D
Do you remember the nights 
                     A 
We made our way dreaming 
            E            A 
Hoping of being someone big 
              D
We were so young then 
               A         E
We were too crazy in love 

         D     E    A 
When the lights go out 
         D      E     A 
We'll be safe and sound 
             D              E
We'll take control of the world 
          F#m       A          D
Like it's all we have to hold on to 
          E      Fm
And we'll be a dream 

      A 
Whoa whoa
F#m    A 
Whoa whoa 
F#m    A     E
Whoa whoa 


         D     E    A 
When the lights go out 
         D      E     A 
We'll be safe and sound 
             D              E
We'll take control of the world 
          F#m       A          D
Like it's all we have to hold on to 
          E      
And we'll be 


         D     E    A 
When the lights go out 
         D      E     A 
We'll be safe and sound 
             D              E
We'll take control of the world 
          F#m       A          D
Like it's all we have to hold on to 
          E      A 
And we'll be a dream





Calificar esta versión:
Aviso: Este fichero es trabajo propio de su transcriptor y representa su interpretación personal de la canción. El material contenido en esta página es para exclusivo uso privado, por lo que se prohibe su reproducción o retransmisión, así como su uso para fines comerciales.