Party (intro), Demi Lovato (tablatura)

Autor: demetria | 24792 visualizaciones



|------------------------------------2/7-5---------------------|
|------------------------------------------7-5-----------------|
|--------------------------------------------------------------|
|-----2-0---0---0-----------2-0--0-----------------------------|
|-2-2-----2---2---1-0---2-2-----2--2---------------------------|
|---------------------3----------------------------------------|

|--------------------------------------2-2---------------------|
|--------------------------------------3-3--2------------------|
|--------------------------------------2-2--2------------------|
|-----2-0---0---0-----------2-0---0----0-0--2------------------|
|-2-2-----2---2---1-0---2-2-----2---2--------------------------|
|---------------------3----------------------------------------|





Comentarios del colaborador: Los ultimos son akordeslos kuales son: 1|-2-2-| 2|-3-3-| 3|-2-2-| 4|-0-0-| Ese es RE y el ke es: 1|---| 2|-2-| 3|-2-| 4|-2-| Es LA va? Ojala les guste Bye

Calificar esta versión:
Aviso: Este fichero es trabajo propio de su transcriptor y representa su interpretación personal de la canción. El material contenido en esta página es para exclusivo uso privado, por lo que se prohibe su reproducción o retransmisión, así como su uso para fines comerciales.