De Mí Enamórate, Delux (tablatura)

Autor: arthur 500 | 30956 visualizaciones



G|-----------------------------------------
D|----------8-8-8-7-5---5------------------
A|-5-7-8-5------------8--------------------
E|-----------------------------------------

G|-----------5-----------------------------
D|---------7---7-5-4-----------------------
A|-5-7-8-5---------------------------------
E|-----------------------------------------

G|-----------------------------------------
D|---------8-8-7-5----5-5------------------
A|-5-7-8-5---------8------8-7-4-5----------
E|-----------------------------------------


       A#5                   C5
Para realizar, mi sueño ¿qué haré?
                A5               D5
¿por dónde empezar? ¿cómo realizaré?
               A#5
tú tan lejano amor
                C5
si lo único que sé
                   A5
es que no sé quién soy
                 D5
de donde vengo y voy

          A#5                     C5
Desde que te ví, mi identidad perdí
              A5                  D5
en mi cabeza estás, sólo tú y nadie más
               A#5
me duele al pensar
              C5              D5
que mía no serás de mí enamorate



Mira que eeeeeeeel


C5           A5              F5
el día que de mí te enamores yo
(el!!!)
            G5                  E5
voy a ser felíz y con puro amor
         A5               D5
te protegeré y será un honor
         E5                   A5
dedicarme a tí eso quiera Diós

(A5 Muteado)

                             F5
El día que de mí te enamores tú
          G5                    E5
voy a ver por fín de una vez la luz
           A5            D5
y me desharé de esta soledad
           E5
de la esclavitúd desde el día en que...

(Parte Xida)

 A5       G5                A5
"Tú de mí amor, te enamores tú
         G5                A5
veré por fín de una vez la luz..."


  Gtr1 (A#5, C5, A5, D5...A#5, C5, D5)

  Gtr 2
G|-----------------------------------------
D|----------8-8-8-7-5---5------------------
A|-5-7-8-5------------8--------------------
E|-----------------------------------------

G|-----------5-----------------------------
D|---------7---7-5-4-----------------------
A|-5-7-8-5---------------------------------
E|-----------------------------------------

G|---------------5-------------------------
D|---------8-8-8---5-----------------------
A|-5-7-8-5-----------8-7-5-4-5-------------
E|-----------------------------------------


         A#5                     C5
Desde que te ví, mi identidad perdí
              A5                  D5
en mi cabeza estás, sólo tú y nadie más
              A#5
me duele al pensar
              C5                D5
que mía no seras....de mí enamorateeeee!!!


Mira que eeeeeeeel


C5           A5              F5
el día que de mí te enamores yo
(el!!!)
            G5                  E5
voy a ser felíz y con puro amor
         A5               D5
te protegeré y será un honor
           E5                A5
dedicarme a tí eso quiera Diós

(A5 Muteado)

                             F5
El día que de mí te enamores tú
          G5                    E5
voy a ver por fín de una vez la luz
           A5               D5
y me desharé de esta soledad
         E5
de la esclavitúd


Outro:

 Gtr1
 (A#5, C5...................D5)
            De mi enamorate!!!

 Gtr2
G|-----------------------------------------
D|---------8-8-7-5----5-5------------------
A|-5-7-8-5---------8------8-7-4-5v---------
E|-----------------------------------------





Calificar esta versión:
Aviso: Este fichero es trabajo propio de su transcriptor y representa su interpretación personal de la canción. El material contenido en esta página es para exclusivo uso privado, por lo que se prohibe su reproducción o retransmisión, así como su uso para fines comerciales.