Escape-(instrumental), Delirium (tablatura)

Autor: JrThrasher | 22693 visualizaciones



DELIRIUM- ESCAPE-(Instrumental)

Riff 1
            Dm
e|----------0--1-----------0--1--3--1--0--|
B|-------3-----3--------3-----------------|
G|----2--------2-----2--------------------|
D|-0-----------0--0-----------------------|  SE REPITE 6 VECES
A|----------------------------------------|
E|----------------------------------------|

Ri
e|---0-------------0--------|
B|---3---3---------3---3----|
G|---2---2---------2---2----|
D|-------0-------------0----|
A|--------------------------|
E|--------------------------|

Se repite el Riff 1 (4 Veces)

Riff3
e|---5---------------------------------------------|
B|---6---------------------------------------------|
G|---7---------------------------------------------| GUITARRA 1
D|-------------------------------------------------|
A|-------------------------------------------------|
E|-------------------------------------------------|
Riff3b
e|-------------------------------------------------|
B|-------------------------------------------------|
G|-------------------------------------------------| GUITARRA 2
D|--0--0--0--0--0--0--0--0--0--0--0--0--0--0--0--0-|
A|-10-10-10-10-10-10-10-10-10-10-10-10-10-10-10-10-|
E|-------------------------------------------------|
Riff3 (cont)
---7---------------------------------------------|
---8---------------------------------------------|
---9---------------------------------------------|
-------------------------------------------------| GUITARRA 1
-------------------------------------------------|
-------------------------------------------------|
Riff3b (cont)
-------------------------------------------------|
-------------------------------------------------|
-------------------------------------------------|
--0--0--0--0--0--0--0--0--0--0--0--0--0--0--0--0-| GUITARRA 2
-10-10-10-10-10-10-10-10-10-10-10-10-10-10-10-10-|
-------------------------------------------------|
Se repite el Riff3 tres veces
Se repite el Riff2
Riff4
e|----------0--1-----------0--1--3--1--0--|
B|-------3-----3--------3-----------------|
G|----2--------2-----2--------------------|
D|-0-----------0--0-----------------------|  GUITARRA 1
A|----------------------------------------|
E|----------------------------------------|
Riff4b
e|--6--------5----------------------------|
B|-----------------6-----6/8-------8/6----|
G|----------------------------------------|
D|----------------------------------------|  GUITARRA 2
A|----------------------------------------|
E|----------------------------------------|
Riff4
----------0--1-----------0--1--3--1--0--|
-------3-----3--------3-----------------|
----2--------2-----2--------------------|
-0-----------0--0-----------------------|GUITARRA 1
----------------------------------------|
----------------------------------------|


--6--------5----------------------------|
-----------------6-------6/3------------|
----------------------------------------|GUITARRA 2
----------------------------------------|
----------------------------------------|
----------------------------------------|


Se repiten los riff4 y 4b solo que al final de 4b en vez de 6(2da)
y el slide se sostiene la nota en 5(1ra)
Riff5
e|----------------------------------------|
B|----------------------------------------|
G|--2/3----------------2/3----------------|
D|--2/3----------------2/3----------------| GUIT 1
A|----------------------------------------|
E|----------------------------------------|
Riff5b
e|---5~~~~~~~~~~~~~~~~~~~~~~~~~~~~~~~/0---|
B|----------------------------------------|
G|----------------------------------------|
D|----------------------------------------| GUIT 2
A|----------------------------------------|
E|----------------------------------------|





Comentarios del colaborador: fuente-lacuerda.net

Calificar esta versión:
Aviso: Este fichero es trabajo propio de su transcriptor y representa su interpretación personal de la canción. El material contenido en esta página es para exclusivo uso privado, por lo que se prohibe su reproducción o retransmisión, así como su uso para fines comerciales.