Años De Cizaña, Delirium (tablatura)

Autor: JrThrasher | 42925 visualizaciones



Afinacion drop D: DADGBE

Intro (repetir 10 vcs)
E----------------------------------------------------------------
B----------------------------------------------------------------
G----------------------------------------------------------------
D-5-----4-----3----2--4------------------------------------------
A---2/5---2/5---2/5---2------------------------------------------
D----------------------------------------------------------------

verso x4
E---------------------------------------------------------------
B---------------------------------------------------------------
G---------------------------------------------------------------
D---------------------------------------------------------------
A-12-----10------9------7-------10---9--------------------------
D----9/12---9/12---9/12----12-9----9----------------------------

verso 2 x2
                     PM                   PM
E---------------------------------------------------------------
B---------------------------------------------------------------
G-/7--4--/9--9---7-6-------/7--4-/9--9---7-6-------/7-4-/9-9-7-6
D---------------------------------------------------------------
A---------------------0-0---------------------0-0---------------
D---------------------------------------------------------------

                           ~
E--------------------------------------------
B--------------------------------------------
G-----12-14-12-14-12-14-12-11----7-/11-------
D--------------------------------------------
A--------------------------------------------
D--------------------------------------------


             variacion segunda repeticion
E----------------------------
B----------------------------
G----------------------------
D--4-4--4-4--4-4--4-4--------
A--2-2--2-2--2-2--2-2--------
D----------------------------


mini bridge x2
E----------------------------------------------------------------
B----------------------------------------------------------------
G----------------------------------------------------------------
D--5--2--4-x-4---------------------------------------------------
A--5--2--2-x-2---------------------------------------------------
D--5--2----x-----------------------------------------------------

"Ahora este adorna..." x4 (repetir el C-C-B dos veces en el
ultimo "hasta la humanidad!")


E----------------------------------------------------------------
B----------------------------------------------------------------
G----------------------------------------------------------------
D--5-2--2-x-2---5-2--2-x-2--5-2--2-x-2--5-5-4--------------------
A--5-2--2-x-2---5-2--2-x-2--5-2--2-x-2--3-3-2--------------------
D--5-2--2-x-2---5-2--2-x-2--5-2--2-x-2---------------------------

__________________________________________________________________

1:37 repetir hasta el 2:14
E----------------------------------------------------------------
B----------------------------------------------------------------
G----------------------------------------------------------------
D--2-----------3--------2----------------------------------------
A--2--2-3--5--3--3-2---2----------------------------------------
D--2-----------3------5-2----------------------------------------

2:14-2:26
 PM----------------------|
E----------------------------------------------------------------
B----------------------------------------------------------------
G----------------------------------------------------------------
D-2-2-2-2-2-2--2--2--2--2---2------------------------------------
A-2-2-2-2-2-2--2--2--2--2---2------------------------------------
D-2-2-2-2-2-2--2--2--2--2---2------------------------------------

x2
E-----14----14----14--14b15-14-------------------------------------
B--12----12----12------------------------------------------------
G----------------------------------------------------------------
D----------------------------------------------------------------
A----------------------------------------------------------------
D----------------------------------------------------------------

2:32-2:43
 PM----------------------|
E----------------------------------------------------------------
B----------------------------------------------------------------
G----------------------------------------------------------------
D-2-2-2-2-2-2--2--2--2--2--2-------------------------------------
A-2-2-2-2-2-2--2--2--2--2--2-------------------------------------
D-2-2-2-2-2-2--2--2--2--2--2--------------------------------------

x2
E-----14----14----14--14b15-14-----------------------------------
B--12----12----12------------------------------------------------
G----------------------------------------------------------------
D----------------------------------------------------------------
A----------------------------------------------------------------
D----------------------------------------------------------------

2:50-3:01
 PM----------------------|
E----------------------------------------------------------------
B----------------------------------------------------------------
G----------------------------------------------------------------
D-2-2-2-2-2-2--2--2--2--2---2------------------------------------
A-2-2-2-2-2-2--2--2--2--2---2------------------------------------
D-2-2-2-2-2-2--2--2--2--2---2-------------------------------------

3:01-3:13
E------------------------------------------------
B------------------------------------------------
G------------------------------------------------
D----11---11---11-11b12-11----11---11---11-11b12-
A--9----9----9--------------9----9----9----------
D------------------------------------------------

E-------14----14----14-14b15-14-------14----14----14-14b5---------
B----12----12----12----------------12----12----12-----------------
G-----------------------------------------------------------------
D-----------------------------------------------------------------
A-----------------------------------------------------------------
D-----------------------------------------------------------------

3:13-3:24

E----------------------------------------------------------------------
B----------------------------------------------------------------------
G----------------------------------------------------------------------
D-2-2--2-2--2-2--2-2--3-3--3-3--3-3--3-3--5-5--5-5--5-5--5-5--3-3--3-3-
A-2-2--2-2--2-2--2-2--3-3--3-3--3-3--3-3--5-5--5-5--5-5--5-5--3-3--3-3-
D-2-2--2-2--2-2--2-2--3-3--3-3--3-3--3-3--5-5--5-5--5-5--5-5--3-3--3-3-

E----------
B----------
G----------
D-3-3--3-3-
A-3-3--3-3-
D-3-3--3-3-

3:24-3:36
E------------------------------------------------
B------------------------------------------------
G------------------------------------------------
D----11---11---11-11b12-11----11---11---11-11b12-
A--9----9----9--------------9----9----9----------
D------------------------------------------------

E-------14----14----14-14b15-14-------14----14----14-14b5---------
B----12----12----12----------------12----12----12-----------------
G-----------------------------------------------------------------
D-----------------------------------------------------------------
A-----------------------------------------------------------------
D-----------------------------------------------------------------


Luego viene "Ahora este adorna...", luego repetir el intro,
el verso 2 y  terminar la canción. LARGA VIDA A DELIRIUM´´





Comentarios del colaborador: fuente- lacuerda.net

Calificar esta versión:
Aviso: Este fichero es trabajo propio de su transcriptor y representa su interpretación personal de la canción. El material contenido en esta página es para exclusivo uso privado, por lo que se prohibe su reproducción o retransmisión, así como su uso para fines comerciales.