El Zorzal, Déjalo Noé (acordes)

Autor: Déjalo Noé | 58 visualizaciones

bmcdemg
Intro:
G D C
e|--------|--------|--------|--||
b|--12----|---7----|----5---|--||
g|--0-----|---0----|----0---|--||
d|--0-----|---0----|----0---|x4||
a|--10----|---5----|----3---|--||
E|--------|--------|--------|--||
Estribillo:
Em C D
e|--------|--------|--------|--||
b|--5-----|---8----|----7---|--||
g|--------|--------|--------|--||
d|--------|--------|--------|--||
a|--3-----|---7----|----5---|--||
E|--------|--------|--------|--||
Bm D C
e|--------|--------|--------|--||
b|--3-----|---7----|----5---|--||
g|--------|--------|--------|--||
d|--------|--------|--------|--||
a|--2-----|---5----|----3---|--||
E|--------|--------|--------|--||
Em C D
e|--------|--------|--------|--||
b|--8-----|---5----|----7---|--||
g|--------|--------|--------|--||
d|--------|--------|--------|--||
a|--7-----|---3----|----5---|--||
E|--------|--------|--------|--||
Bm C D C D G
e|--------|--------|--------|--||e|--------|--------|--------|--||
b|--3-----|---5----|----7---|--||b|--5-----|---7----|----12--|--||
g|--------|--------|--------|--||g|--------|--------|--------|--||
d|--------|--------|--------|--||d|--------|--------|--------|--||
a|--2-----|---3----|----5---|--||a|--3-----|---5----|----10--|--||
E|--------|--------|--------|--||E|--------|--------|--------|--||
G
D-C D G
La sombra de aquella quebrada surcó
D-C D G
La esfera completa que es la bendición
D-C D G
Ingenuas aquellas palabras que quieran
D-C D G
Rozarle la piel a esta puesta de sol
D-C D G
El ruido constante del ciclo motor
D-C D G
La excusa perfecta de la reflexión
D-C D G
Si todos miraran de a ratos al cielo
D-C D G
Las cosas del suelo andarían mejor
Em C D
De repente me asaltás
Bm D C
Tu recuerdo es un zorzal
Em C D
Que aletea al ras de mi
 Bm - C
soledad
D-C
D-G
D-C D G
Y no es que me cueste soltar el amor
D-C D G
Es que echo de menos tu cosmovisión
D-C D G
Y para no ver tú nombre de nuevo
D-C D G
Yo voy a archivar nuestra conversación
Em C D
De repente me asaltás
Bm D C
Tu recuerdo es un zorzal
Em C D
Que aletea al ras de mi
 Bm - C
soledad
 D - C
Em C D
De repente me asaltás
Bm D C
Como un pájaro rapaz
Em C D
Por la ruta en la que voy
 Bm - C
No hay señal
 D - C - D - G
Calificar esta versión:
Aviso: Este fichero es trabajo propio de su transcriptor y representa su interpretación personal de la canción. El material contenido en esta página es para exclusivo uso privado, por lo que se prohibe su reproducción o retransmisión, así como su uso para fines comerciales.