The Lord's Sedition, Deicide (tablatura)

Autor: tito10 | 21882 visualizaciones



|----------3-----------------3-----2---------2------------|
|------------0-------------0---0-----0---------0-------3--|
|--------0-----0---------0-------0-----0---------0---2----|
|------2---------2-----2-----------------2---------0------|
|----2---------------2------------------------------------|
|--0---------------0-----------------------0--------------|

|----------3-----------------3-----2---------2------------|
|------------0-------------0---0-----0---------0----------|
|--------0-----0---------0-------0-----0---------0-----3--|
|------2---------2-----2-----------------2-----------3----|
|----2---------------2-----------------------------1------|
|--0---------------0-----------------------0--------------|

|----------3-----------------3-----2---------2------------|
|------------0-------------0---0-----0---------0-------3--|
|--------0-----0---------0-------0-----0---------0---2----|
|------2---------2-----2-----------------2---------0------|
|----2---------------2------------------------------------|
|--0---------------0-----------------------0--------------|

|----------3-----------------3-----2---------2------------|
|------------0-------------0---0-----0---------0----------|
|--------0-----0---------0-------0-----0---------0-----3--|
|------2---------2-----2-----------------2-----------3----|
|----2---------------2-----------------------------1------|
|--0---------------0-----------------------0--------------|

|----------------------0------------------------------0----------|
|--------------------0---0--------------------------0---0--------|
|--------0---------3-------3------------0---------3-------3------|
|------2---------4-----------4--------2---------4-----------4----|
|----2---------4---------------4----2---------4---------------4--|
|--0-------0-2--------------------0-------0-2--------------------|

|----------------------0----------|
|--------------------0---0--------|
|--------0---------3-------3------|
|------2---------4-----------4----|
|----2---------4---------------4--|
|--0-------0-2--------------------|

Distorted Intro
(both guitars)

|------------------------------|
|------------------------------|
|------------------------------|
|--2--2--2--2--4--4--4--4--5\--|
|--2--2--2--2--4--4--4--4--5\--|
|--0--0--0--0--2--2--2--2--3\--|
|                              |
|                              |
|------------------------------|
|------------------------------|
|------------------------------|
|--2--2--2--2--4--4--4--4--5\--|
|--2--2--2--2--4--4--4--4--5\--|
|--0--0--0--0--2--2--2--2--3\--|

|------------3-----3--/5---------------------------|
|----------0---0-----------------------7-10-7---7--|
|--------0-------0-----------------8-9--------9----|
|------2-------------------------------------------|
|----2---------------------------------------------|
|--0-----------------------------------------------|
|                                                  |
|                                                  |
|--------------------------11-12-14----------------|
|-----------------------10-------------------------|
|--------------------------------------------------|
|--------------------------------------------------|
|--------------------------------------------------|
|--------------------------------------------------|

|--------------------------------------------|
|--------------------------------------------|
|--------------------------------------------|
|--------------------------------------------|
|--------------------------------------------|
|--------------------------------------------|
|                                            |
|                                            |
|-----------11h12h14p12p11------11-----------|
|--10h12h13----------------[13]----13-12-12--|
|--------------------------------------------|
|--------------------------------------------|
|--------------------------------------------|
|--------------------------------------------|

|------------3-----3--2-----------11-12-14--|
|----------0---0------0--------10-----------|
|--------0-------0--------------------------|
|------2------------------------------------|
|----2--------------------------------------|
|--0----------------------------------------|
|                                           |
|                                           |
|-------------------------------------------|
|-------------------------------------------|
|------------------------8-9-11-------------|
|----------------------7--------------------|
|-------------------------------------------|
|-------------------------------------------|

|--------------------------------------------|
|--------------------------------------------|
|--------------------------------------------|
|--------------------------------------------|
|--------------------------------------------|
|--------------------------------------------|
|                                            |
|                                            |
|-----------16h17h19p17p16------16-----------|
|--15h17h18----------------[18]----18-17-17--|
|--------------------------------------------|
|--------------------------------------------|
|--------------------------------------------|
|--------------------------------------------|

|------------3-----3--2---------------------------|
|----------0---0------0---------------7-10-7---7--|
|--------0-------0----------------8-9--------9----|
|------2------------------------------------------|
|----2--------------------------------------------|
|--0----------------------------------------------|
|                                                 |
|                                                 |
|-------------------------11-12-14----------------|
|----------------------10-------------------------|
|-------------------------------------------------|
|-------------------------------------------------|
|-------------------------------------------------|
|-------------------------------------------------|

|--------------------------------------------|
|--------------------------------------------|
|--------------------------------------------|
|--------------------------------------------|
|--------------------------------------------|
|--------------------------------------------|
|                                            |
|                                            |
|-----------11h12h14p12p11------11-----------|
|--10h12h13----------------[13]----13-12-12--|
|--------------------------------------------|
|--------------------------------------------|
|--------------------------------------------|
|--------------------------------------------|

|------------3-----3--2-----------11-12-14--|
|----------0---0------0--------10-----------|
|--------0-------0--------------------------|
|------2------------------------------------|
|----2--------------------------------------|
|--0----------------------------------------|
|                                           |
|                                           |
|-------------------------------------------|
|-------------------------------------------|
|------------------------8-9-11-------------|
|----------------------7--------------------|
|-------------------------------------------|
|-------------------------------------------|

|--------------------------------------------|
|--------------------------------------------|
|--------------------------------------------|
|--------------------------------------------|
|--------------------------------------------|
|--------------------------------------------|
|                                            |
|                                            |
|-----------16h17h19p17p16------16-----------|
|--15h17h18----------------[18]----18-17-17--|
|--------------------------------------------|
|--------------------------------------------|
|--------------------------------------------|
|--------------------------------------------|





Calificar esta versión:
Aviso: Este fichero es trabajo propio de su transcriptor y representa su interpretación personal de la canción. El material contenido en esta página es para exclusivo uso privado, por lo que se prohibe su reproducción o retransmisión, así como su uso para fines comerciales.