Foolin, Def Leppard (tablatura)

Autor: ccmo | 39892 visualizaciones



foolin de Def Leppard 
Este es el intro, espero que le guste:

e|---------------------------|--------------------0---------|
B|---------------------------|----------0-----------------0-|
G|--------2---4--------------|------4-------5---------5-----|
D|----2-------------2-------3|--------------3---------------|
A|0---------------------0----|------------------------------|
E|---------------------------|------------------------------|
 

e|---------------------------|--------------------0---------|
B|---------------------------|----------0-------------0-----|
G|--------2---4--------------|------4-------5-------------5-|
D|----2-------------2-------3|--------------3---------------|
A|0---------------------0----|------------------------------|
E|---------------------------|------------------------------|





Calificar esta versión:
Aviso: Este fichero es trabajo propio de su transcriptor y representa su interpretación personal de la canción. El material contenido en esta página es para exclusivo uso privado, por lo que se prohibe su reproducción o retransmisión, así como su uso para fines comerciales.