Burn, Deep Purple (tablatura)

Autor: contacovunco | 33191 visualizaciones

bueno aca les dejo burn q no lo vi q havia xD

TAB

e-------------------------------------------------
b-------------------------------------------------
g--------3----2---0----5--------------------------
d--------3----2---0----5--------------------------
a-------------------------------------------------
E----3--------------------------------------------


e--------------------------------------------------
b--------------------------------------------------
g---2-----3----2---0----5--------------------------
d---2-----3----2---0----5--------------------------
a--------------------------------------------------
E--------------------------------------------------


e-------------------------------------------------
b-------------------------------------------------
g--------3----2---0----5--------------------------
d--------3----2---0----5--------------------------
a-------------------------------------------------
E----3--------------------------------------------


e-------------------------------------------------
b-------------------------------------------------
g--------3----2---0-------------------------------
d--------3----2---0----2--------------------------
a----------------------2--------------------------
E----3--------------------------------------------

bueno asi es espero q lo practiquen...acuerdense q es rapido
Calificar esta versión:
Aviso: Este fichero es trabajo propio de su transcriptor y representa su interpretación personal de la canción. El material contenido en esta página es para exclusivo uso privado, por lo que se prohibe su reproducción o retransmisión, así como su uso para fines comerciales.