Light´s Theme, Death Note (tablatura)

Autor: Elfenlied | 38974 visualizaciones



---0-----1-----5---0-----1-----3---0-----1-----5---0-----1-----3---
-----3-----3---------3-----3---------3-----3---------3-----2-------
|**-------2-----2---------2-----2---------2-----2---------2-----3-----
|**-0---------------0---------------0---------------0-----------------
-------------------------------------------------------------------
-------------------------------------------------------------------

---0-----1-----5---0-----1-----3---0-----1-----5---0-----1-0------- 
-----1-----1---------1-----1---------1-----1---------1-------3----- 
-------2-----2---------2-----2---------2-----2---------2-------2---**|
-------------------------------------------------------------------**|
-0---------------0---------------0---------------0----------------- 
------------------------------------------------------------------- 


Lead Guitar:
--10---10-----------------10--10-----------10-10-9------9----------
-------------------------------------------------------------------
------------------------------------------------------------------- Repeat 2x
-------------------------------------------------------------------
-------------------------------------------------------------------
-------------------------------------------------------------------

(bass enters here)
-10~~~12~~~~13~~~~~~~~~~~~~~~~~~~~~~~~12~13~12~~-----------10~~~12~
------------------------------------------------13~~~~~~~~~--------
-------------------------------------------------------------------
-------------------------------------------------------------------
-------------------------------------------------------------------
-------------------------------------------------------------------

13~~~~~~~~~~~15~~~~~~12~(13)~~(12)~~~~~~-(0)----(Piano Enters)-----
-----------------------------------------(3)-----------------------
-----------------------------------------(2)-----------------------
-----------------------------------------(0)-----------------------
-------------------------------------------------------------------
-------------------------------------------------------------------

-------------------------------3----3--3---5----8------------------
-------------------------------------------------------------------
-------------------------------------------------------------------
-------------------------------------------------------------------
-------------------------------------------------------------------
-------------------------------------------------------------------

Background Guitar:
--0-----1-----5---0-----1-----3---0-----1-----5---0-----1-----3---
-----3-----3---------3-----3---------3-----3---------3-----3-------
|**-------2-----2---------2-----2---------2-----2---------2-----2-----
|**-0---------------0---------------0---------------0----------------- Played to the lead's high D (10)
-------------------------------------------------------------------
-------------------------------------------------------------------


---0------0-----5---0-----0-----3---0-----0-----5---0-----0-----3-- 
-----2------2---------2-----2---------2-----2---------2-----2------ 
-------2------2---------2-----2---------2-----2---------2-----2----**| Played to the lead's high C# (9)
-------------------------------------------------------------------**|
-0----------------0---------------0---------------0---------------- 
------------------------------------------------------------------- 


Background to Tremelo Part:
---0-----0-----5---0-----0-----5---0-----0-----5---0-----0-----5---
-----3-----3---------3-----3---------1-----1---------1-----1-------
-------2-----2---------2-----2---------2-----2---------2-----2-----
-0---------------0-------------------------------------------------
---------------------------------0---------------0-----------------
-------------------------------------------------------------------

---0-----0-----5---0-----0-----5---0-----0-------0-----------------
-----3-----3---------3-----3---------1-----1-----3-----------------
-------2-----2---------2-----2---------2-----2---2-----------------
-0---------------0-------------------------------0-----------------
---------------------------------0---------------------------------
-------------------------------------------------------------------


Background to Piano Part:
---------5---------------5---------------5-------------------------
---5-------5-------5-------5-------5-------5-----------------------
-----7-------7-------7-------7-------7-------7---------------------
-------7-------7-------7-------7-------7-------7-------------------
-5---------------5---------------5---------------5-----------------
-------------------------------------------------------------------
Play until:
-------------------------------------------------------------------
-------------------------------------------------------------------
-5--5---7-----10---------------------------------------------------
-5--5---7-----10---------------------------------------------------
-3--3---5-----8----------------------------------------------------
-------------------------------------------------------------------


Piano:
-10---8-----------------8--------------------------------10-10-10--
----------10---8---10-------10-------------------------------------
*------------------------------------------------------------------
-------------------------------------------------------------------
-------------------------------------------------------------------
------------------------------------------------------------------





Calificar esta versión:
Aviso: Este fichero es trabajo propio de su transcriptor y representa su interpretación personal de la canción. El material contenido en esta página es para exclusivo uso privado, por lo que se prohibe su reproducción o retransmisión, así como su uso para fines comerciales.