Solo Tu Puedes Cambiar, De Hombre A Hombre (acordes)

Autor: sergeras | 35585 visualizaciones

befsosgsosm


De Hombre a Hombre

Solo tu puedes Cambiar ???

Tu voz Señor................  yo en tus manos quiero estar..

4-|--------------------11-------------11------------|
3-|------9-8---------8----------9-8-----------------|
2-|--12----------12----------12---------------------|
1-|-------------------------------------------------|
E        B                G#m           F#           E
Tu voz señor vengo a escuchar, y un clamor hoy levantar,
        G#m        F#
yo necesito de tu paz.
E          B             G#m       F#             E
Se que mi ser puedes cambiar, moldeame a tu voluntad,
           G#m             F#
yo en tus manos quiero estar.

Pre CORO:
           E                          G#m         F#        
Tu me transformaste, me has dado una razón para vivir.

CORO:
 B                  F#        G#m             E 
Solo tu puedes cambiar mi esclavitud en libertad,
 B                   F#                G#m        E
hoy yo vengo a proclamar que eres Grandioso, Glorioso.
 B                F#    G#m        E 
Solo tu puedes saciar toda mi necesidad,
 B                F#        G#m           E
Solo tu puedes sanar mi corazón Jesús, y darme libertad

Puente: E--B--G#m--F#

4-|--------------------11---|
3-|------9-8---------8------|
2-|--12----------12---------|
1-|-------------------------|

E        B           G#m               F#              E
No buscaré en otro lugar, pues solo en ti puedo encontrar
          G#m       F#
lo que mi vida llenará,
6-|----------------------|
5-|----------------11----|
4-|-------------9--------|
3-|---------11-----------| 
2-|---12-11--------------|
1-|----------------------|
 E      B       G#m          F#             E
Ayúdame a reconocer y a entender que débil soy, 
            G#m          F#
que sin ti nada puedo hacer.


Precoro: 
           E                        G#m        F#
Tu me perdonaste, me has dado una razón para vivir!!!

CORO: 

 B                  F#        G#m             E 
Solo tu puedes cambiar mi esclavitud en libertad,
 B                   F#                G#m        E
hoy yo vengo a proclamar que eres Grandioso, Glorioso.
 B                F#    G#m          E 
Solo tu puedes saciar toda mi necesidad,
 B                F#        G#m           E
Solo tu puedes sanar mi corazón Jesús, y darme libertad

// B--F#--G#m--E //
     B               F#        G#m              E
//// Yo soy libre en ti Jesús, yo soy libre en ti ////

CORO, y el final esto: //E--B--G#m--F#//  B......

4-|------------------11----------------11~~~9-|
3-|------9-8-------8--------9-8------8--------|
2-|--12--------12--------12------12-----------|
1-|-------------------------------------------|





Comentarios del colaborador: Dios los bendiga

Calificar esta versión:
Aviso: Este fichero es trabajo propio de su transcriptor y representa su interpretación personal de la canción. El material contenido en esta página es para exclusivo uso privado, por lo que se prohibe su reproducción o retransmisión, así como su uso para fines comerciales.