Dime Que Quieres De Mi, D'callaos (tablatura)

Autor: stirgoy | 41013 visualizaciones



Hola aquí traigo la que para mi es la mejor versión de la canción para mi.
Es muy bonita y muy fácil.

Cejilla 5º traste

E[----------------------------------------------------------------]
b[------1p0--------0-------0-------0-------0----------------------]
g[----0-----0--------0-------0-------0----------------------------]
d[---2-----------2-------2-------2-------2------------------------]
a[--0-------------------------------------------------------------]
E[----------------------------------------------------------------]

E[----------------------------------------------------------------]
b[------1p0--------0-------0-------0-------0----------------------]
g[----0-----0--------0-------0-------0----------------------------]
d[---2-----------2-------2-------2-------2------------------------]
a[--0-------------------------------------------------------------]
E[----------------------------------------------------------------]

E[----------------------------------------------------------------]
b[------0h1-0---1-------------------------------------------------]
g[----0-----0---0-------------------------------------------------]
d[---2----------2-------------------------------------------------]
a[--0-----------0-------------------------------------------------]
E[----------------------------------------------------------------]

Después de esto un golpecito con el nudillo a la guitarra
el ritmo un poco mas rapido y repetimos 2 veces:


E[----0---0---0----0---0---0----1---1---1----0---0---0------------]
b[------1---1--------0---0--------3---3--------0---0--------------]
g[--2------------0------------2------------0----------------------]
d[----------------------------------------------------------------]
a[----------------------------------------------------------------]
E[----------------------------------------------------------------]


Tarde un poquito en sacarla pero creo que esta bastante bien.
Espero que os guste!!!





Calificar esta versión:
Aviso: Este fichero es trabajo propio de su transcriptor y representa su interpretación personal de la canción. El material contenido en esta página es para exclusivo uso privado, por lo que se prohibe su reproducción o retransmisión, así como su uso para fines comerciales.