La Prostituta, Dc Reto (tablatura)

Autor: linkins | 23164 visualizaciones

Hermosísima canción, un poquito complicada por lo rápido que se arpegia
pero solo apréndanselo la INTRO a la perfección y con el mismo ritmo
empiecen a cantar.

A.C.M tu fuiste mi inspiración en esta ocasión TQM, ojalá sea cierto lo
que me dices.

                          ¡PÓNGANLE GANAS E INSPIRACIÓN!

INTRO:

   B     F#    E     F#    B     F#    B     F#
e|-------------------------------------------------|
B|----4-----2-----0-----2-----4-----2-----4-----2--|
G|---4-4---3-3---1-1---3-3---4-4---3-3---4-4---3-3-|    X 2 VECES
D|--4---4-4---4-2---2-4---4-4---4-4---4-4---4-4---4|
A|-2-----4-----2-----4-----2-----4-----2-----4-----|
E|-------------------------------------------------|


   Una prostituta llegó a la iglesia buscando una salida una respuesta
|-------------------------------------------------->
|----4-----2-----0-----2-----4-----2-----4-----2--->
|---4-4---3-3---1-1---3-3---4-4---3-3---4-4---3-3-->
|--4---4-4---4-2---2-4---4-4---4-4---4-4---4-4---4->
|-2-----4-----2-----4-----2-----4-----2-----4------>
|-------------------------------------------------->

   Ignorantemente ella llegó con una minifalda y una camisa escotada
|-------------------------------------------------->
|----4-----2-----0-----2-----4-----2-----4-----2--->
|---4-4---3-3---1-1---3-3---4-4---3-3---4-4---3-3-->
|--4---4-4---4-2---2-4---4-4---4-4---4-4---4-4---4->
|-2-----4-----2-----4-----2-----4-----2-----4------>
|-------------------------------------------------->

   Y cuando iba entrando por la puerta de esa iglesia un miembro la
   detuvo y le dijo:
|-------------------------------------------------->
|----4-----2-----0-----2-----4-----2-----4-----2--->
|---4-4---3-3---1-1---3-3---4-4---3-3---4-4---3-3-->
|--4---4-4---4-2---2-4---4-4---4-4---4-4---4-4---4->
|-2-----4-----2-----4-----2-----4-----2-----4------>
|-------------------------------------------------->

   tu no puedes entrar en este lugar vestida así, ella se fue con lágri-
   mas sin Jesús
|-------------------------------------------------->
|----4-----2-----0-----2-----4-----2-----4-----2--->
|---4-4---3-3---1-1---3-3---4-4---3-3---4-4---3-3-->
|--4---4-4---4-2---2-4---4-4---4-4---4-4---4-4---4->
|-2-----4-----2-----4-----2-----4-----2-----4------>
|-------------------------------------------------->

                            ***CHORUS***

  Donde esta el amor, donde esta el amor, el amor que declaramos conocer
|-------------------------------------------------->
|----4-----2-----0-----2-----4-----2-----4-----2--->
|---4-4---3-3---1-1---3-3---4-4---3-3---4-4---3-3-->
|--4---4-4---4-2---2-4---4-4---4-4---4-4---4-4---4->
|-2-----4-----2-----4-----2-----4-----2-----4------>
|-------------------------------------------------->


 Donde esta el amor, donde esta el amor, el amor que solo se encuentra
 en el
|-------------------------------------------------->
|----4-----2-----0-----2-----4-----2-----4-----2--->
|---4-4---3-3---1-1---3-3---4-4---3-3---4-4---3-3-->
|--4---4-4---4-2---2-4---4-4---4-4---4-4---4-4---4->
|-2-----4-----2-----4-----2-----4-----2-----4------>
|-------------------------------------------------->


INERMEDIO: IGUAL Q LA INTRO (BUENO IGUAL A TODO) X 2 VECES


   Doctrinas, religiones y tantas cosas por ahí, que lo único que nos
   hacen es volver atrás
|-------------------------------------------------->
|----4-----2-----0-----2-----4-----2-----4-----2--->
|---4-4---3-3---1-1---3-3---4-4---3-3---4-4---3-3-->
|--4---4-4---4-2---2-4---4-4---4-4---4-4---4-4---4->
|-2-----4-----2-----4-----2-----4-----2-----4------>
|-------------------------------------------------->

   envolviéndonos en un mundo, en hito de ansiedad, solo pensamos en
   nuestra situación
|-------------------------------------------------->
|----4-----2-----0-----2-----4-----2-----4-----2--->
|---4-4---3-3---1-1---3-3---4-4---3-3---4-4---3-3-->
|--4---4-4---4-2---2-4---4-4---4-4---4-4---4-4---4->
|-2-----4-----2-----4-----2-----4-----2-----4------>
|-------------------------------------------------->

   y dime donde esta aquella mujer que un día vino, buscando un poquito
   de amor
|-------------------------------------------------->
|----4-----2-----0-----2-----4-----2-----4-----2--->
|---4-4---3-3---1-1---3-3---4-4---3-3---4-4---3-3-->
|--4---4-4---4-2---2-4---4-4---4-4---4-4---4-4---4->
|-2-----4-----2-----4-----2-----4-----2-----4------>
|-------------------------------------------------->

   talvez ella esta muerta en un callejón solo porque tu no tuviste
   corazón
|-------------------------------------------------->
|----4-----2-----0-----2-----4-----2-----4-----2--->
|---4-4---3-3---1-1---3-3---4-4---3-3---4-4---3-3-->
|--4---4-4---4-2---2-4---4-4---4-4---4-4---4-4---4->
|-2-----4-----2-----4-----2-----4-----2-----4------>
|-------------------------------------------------->


                                 ***CHORUS***
                               INTRO X 2 VECES

   Me han burlado, me han criticado, es que ellos piensan que me conocen
|-------------------------------------------------->
|----4-----2-----0-----2-----4-----2-----4-----2--->
|---4-4---3-3---1-1---3-3---4-4---3-3---4-4---3-3-->
|--4---4-4---4-2---2-4---4-4---4-4---4-4---4-4---4->
|-2-----4-----2-----4-----2-----4-----2-----4------>
|-------------------------------------------------->


Pero no importa no me ah parado es que mi cristo a quien yo sirvo siempre
Esta a mi lado mi.....
|-------------------------------------------------->
|----4-----2-----0-----2-----4-----2-----4-----2--->
|---4-4---3-3---1-1---3-3---4-4---3-3---4-4---3-3-->
|--4---4-4---4-2---2-4---4-4---4-4---4-4---4-4---4->
|-2-----4-----2-----4-----2-----4-----2-----4------>
|-------------------------------------------------->

Señooooooor, llévanos a las personas que están llenas de dolor, mi.....
|-------------------------------------------------->
|----4-----2-----0-----2-----4-----2-----4-----2--->
|---4-4---3-3---1-1---3-3---4-4---3-3---4-4---3-3-->
|--4---4-4---4-2---2-4---4-4---4-4---4-4---4-4---4->
|-2-----4-----2-----4-----2-----4-----2-----4------>
|-------------------------------------------------->

señooooooor, enséñanos a amar con tu amor, enséñanos amar.....
|-------------------------------------------------->
|----4-----2-----0-----2-----4-----2-----4-----2--->
|---4-4---3-3---1-1---3-3---4-4---3-3---4-4---3-3-->
|--4---4-4---4-2---2-4---4-4---4-4---4-4---4-4---4->
|-2-----4-----2-----4-----2-----4-----2-----4------>
|-------------------------------------------------->

aquel que se encuentra en la cárcel, aquel que pelea en su barrio,
aquella que vende su cuerpo en la esquina del pueblo a diario.
|-------------------------------------------------->
|----4-----2-----0-----2-----4-----2-----4-----2--->
|---4-4---3-3---1-1---3-3---4-4---3-3---4-4---3-3-->
|--4---4-4---4-2---2-4---4-4---4-4---4-4---4-4---4->
|-2-----4-----2-----4-----2-----4-----2-----4------>
|-------------------------------------------------->

Aquel que ah violado y robado, aquel que sabe lo que es haber matado
Aquel niño desnudo, aquel huérfano que nunca conoció a su mamá
|-------------------------------------------------->
|----4-----2-----0-----2-----4-----2-----4-----2--->
|---4-4---3-3---1-1---3-3---4-4---3-3---4-4---3-3-->
|--4---4-4---4-2---2-4---4-4---4-4---4-4---4-4---4->
|-2-----4-----2-----4-----2-----4-----2-----4------>
|-------------------------------------------------->

whoooouooooooooo...
|-------------------------------------------------->
|----4-----2-----0-----2-----4-----2-----4-----2--->
|---4-4---3-3---1-1---3-3---4-4---3-3---4-4---3-3-->  X 2 VECES
|--4---4-4---4-2---2-4---4-4---4-4---4-4---4-4---4->
|-2-----4-----2-----4-----2-----4-----2-----4------>
|-------------------------------------------------->

Regresar a la inocencia es lo que yo quiero dios, regresar a aquellas
manos que me hicieron
|-------------------------------------------------->
|----4-----2-----0-----2-----4-----2-----4-----2--->
|---4-4---3-3---1-1---3-3---4-4---3-3---4-4---3-3--> HASTA LAS VECES QUE
|--4---4-4---4-2---2-4---4-4---4-4---4-4---4-4---4-> QUIERAS.  Y FIN
|-2-----4-----2-----4-----2-----4-----2-----4------>
|-------------------------------------------------->

        HABER SI CON ESTA CANCIÓN REFLEXIONEMOS AUNQUE SEA UN POQUITO.

Correcciones, sugerencias o cualquier cosa, a mi correo:
                        mc_daan_8@hotmail.com
                                   17/08/06
                                 HUARAZ – PERU

Comentarios del colaborador: espero q les encante bye bye...

Calificar esta versión:
Aviso: Este fichero es trabajo propio de su transcriptor y representa su interpretación personal de la canción. El material contenido en esta página es para exclusivo uso privado, por lo que se prohibe su reproducción o retransmisión, así como su uso para fines comerciales.