Gettin' Over You, David Guetta (tablatura)

Autor: gabguitar | 16482 visualizaciones



(capo 3ª casa)

        F                                          Cm
E|------------------------------------------------------------------------------|
B|---6---6---6---6---6---6---6---6---8---8---8---8---4---4---4---4--------------|
G|---5---5---5---5---5---5---5---5---5---5---5---5---5---5---5---5--------------|
D|------------------------------------------------------------------------------|
A|------------------------------------------------------------------------------|
E|------------------------------------------------------------------------------|
     All the..   right now      if I Only.. back then     There's no gettin'

       D#                               Bb
E|-------------------------------------------------------------------------------|
B|---4---4---4---4---4---4---4---4---3---3---3---3---3---3---3---3---------------|
G|---3---3---3---3---3---3---3---3---3---3---3---3---3---3---3---3---------------|
D|-------------------------------------------------------------------------------|
A|-------------------------------------------------------------------------------|
E|-------------------------------------------------------------------------------|
     Over..          There's just no Gettin' over you

Bb        Cm       D#           F
|-----   ||||||  3a |||---   ------
||||||   ||||||     ||||o|   |||o||
||ooo|   |-----     ||o|||   |oo|||
||||||   ||||o|     |o||||   ||||||
||||||   ||oo||     ||||||   ||||||
x        x          x





Comentarios del colaborador: http://cifraclub.terra.com/david-guetta/gettin-over-you/

Calificar esta versión:
Aviso: Este fichero es trabajo propio de su transcriptor y representa su interpretación personal de la canción. El material contenido en esta página es para exclusivo uso privado, por lo que se prohibe su reproducción o retransmisión, así como su uso para fines comerciales.