Te Quiero Tanto, Danna Paola (tablatura)

Autor: sonac32 | 26683 visualizaciones

saludos gente!!
despues de varias peticiones
pidiendome subir esta rola,
bueno asi fue como me kedo:
=D

INTRO                
1)-----10-10-10-8-7----|------8-8-8-7------|------10-10-10-8-7---->
2)-8~8~-------------10-|-8~8~---------10-8-|-7~7~--------------10->
3)---------------------|-------------------|---------------------->
4)---------------------|-------------------|---------------------->
5)---------------------|-------------------|---------------------->
6)---------------------|-------------------|---------------------->

                ARMONICOS
1)---7/---7/---------(12)-|
2)-8----7----5~------(12)-|
3)--------------(7)--(12)-|
4)------------------------|
5)------------------------|
6)------------------------|


1)-----------|               |---------|              |-----0---|
2)-------3---|               |-----3---|              |-------3-|
3)---------0-|               |-------0-|              |---2-----|
4)-----------|               |---2-----|              |---------|
5)-----2-----|               |-3-------|              |-2-------|
6)-2/3-------|               |---------|              |---------|
          Te quiero tanto que puedo hacer que tu alma quieeera

                  1)---------------|-----------|
                  2)---------------|---------1-|
                  3)---------1-----|-----0-----|
                  4)-----2-----0-0-|---2---2---|
                  5)---2---2-------|-0---------|
                  6)-0-------------|-----------|
robar dentro de mis sueños y escapar hasta tu boca

                    1)-----------|                |---------------|
                    2)---------0-|                |---------------|
                    3)-----2-----|                |---------0-----|
                    4)---1---1---|                |-----2-----2---|
                    5)-2---------|                |---2---2-----2-|
                    6)-----------|                |-0-------------|
te quiero tanto que olvido que el fuego nunca se toca

1)-----------------|
2)-----1---------0-|
3)---2---0-----0---|
4)-0---------0-----|
5)-----------------|
6)---------2-------|

1)-----0-----|                  |---------------------------
2)---------0-|                  |-----3---------------1-----
3)---0---0---|                  |---------2---------------0-
4)-----------|                  |---4---4----4-4----2---2---
5)-3---------|                  |-2---------------0---------
6)-----------|                  |---------------------------
          te quiero tanto que el viento sigue cantando tu nombre

                  1)---------3-----|
                  2)-----3---------|
                  3)---2---2---2-2-|
                  4)-0-------------|
                  5)---------------|
                  6)---------------|
despues de cantarlo yooo      Ihe Ihe

1)-----------|               |------------|
2)---------3-|               |---------3--|
3)-----0-----|               |-----0------|
4)---0---0---|               |---2---2----|
5)-----------|               |-3----------|
6)-3---------|               |------------|
          te quiero tanto que muero si no vivo en tu sonrisa

1)---------0-----|           |-----------|
2)-----------3---|           |-----------|
3)-----2-------2-|           |---------1-|
4)---4---4-------|           |-----2-----|
5)-2-------------|           |---2---2---|
6)---------------|           |-0---------|
          si no puedo estar contigo me persige la tisteza

1)-------------|              |--------------------|
2)---------1---|              |-------------0------|
3)-----2-----2-|              |---------2------2---|
4)---2---2-----|              |-------1---1------1-|
5)-0-----------|              |-0h1h2--------------|
6)-------------|              |--------------------|
          te quiero tanto que mi alma se escapa hasta tu ventana

1)-------------|  |-----------------|
2)-------------|  |-----1-------0---|
3)-------0-----|  |---2-------0---0-|
4)-----2---2---|  |-0-------0-------|
5)---2-------2-|  |-----------------|
6)-0-----------|  |-------3---------|
           Ihe Ihe uho uho Ihe Ihe

1)-----0-----|                  |-----------|   |-------------
2)---------0-|                  |-----3-----|   |-------1-----
3)---0---0---|                  |---------2-|   |-----------0-
4)-----------|                  |---4---4---|   |-----2---2---
5)-3---------|                  |-2---------|   |---0---------
6)-----------|                  |-----------|   |-------------
       te quiero por que al quererte me llena todo tu amor

1)---------0-|
2)-----3-----|
3)---2---2---|
4)-0---------|
5)-----------|
6)-----------|

G                    Cadd9                    Bm
te quiero tanto que puedo llevarte a volar conmigo
                   E                       Am
girar con los remolinos que llevan el corazon
                    B7                      Em    D9  G   Cadd9
te quiero como la lluvia que moja todo tu cuerpo ihe ihe ihe
                      Bm7
te quiero pa´que me quieras
                        Am
te quiero con toda el alma
                       Cm
asi es como te quiero yo

   G                    Cadd9               Bm
1)-----10-10-10-8-7----|------8-8-8-7------|------10-10-10-8-7---->
2)-8~8~-------------10-|-8~8~---------10-8-|-7~7~--------------10->
3)---------------------|-------------------|---------------------->
4)---------------------|-------------------|---------------------->
5)---------------------|-------------------|---------------------->
6)---------------------|-------------------|---------------------->

   C   D
1)---7---7----|
2)-8---7---8~-|
3)------------|
4)------------|
5)------------|

G                   Cadd9                     Bm
te quiero tanto que muero si no vivo en tu sonrisa
                      E                     Am
si no puedo estar contigo me persige la tisteza
                       B7                         Em  
te quiero tanto que mi alma se escapa hasta tu ventana  
     D9      G       Cadd9
ihe ihe uho uho ihe ihe
                         Bm7                     Am    D
te quiero por que al quererte me llena todo tu amor

G                    Cadd9                    Bm 
te quiero tanto que puedo llevarte a volar conmigo
                   E                       Am
girar con los remolinos que llevan el corazon
                    B7                       Em    D9  G   Cadd9
te quiero como la lluvia que moja todo tu cuerpo ihe ihe ihe
                      Bm7
te quiero pa´que me quieras
                        Am
te quiero con toda el alma
                       C
asi es como te quiero yo

G                   Cadd9
te quiero pa´que me quieras
                      Bm
te quiero con toda el alma
                       Cm  D
asi es como te quiero yooo

   G                   D
1)-----10-10-10-8-7---------|
2)-8~8~-------------10-7~7~-|
3)--------------------------|
4)--------------------------|
5)--------------------------|
6)--------------------------|

C              Cm
oh no no no oh no
                      G
asi es como te quiero yo
                      D   C   Cm
asi es como te quiero yooo
                      G     D    C        Cm
asi es como te quiero yooo ihe nanana ihee                 
                      G     D    C        Cm...
asi es como te quiero yooo ihe nanana ihee

Em                       D
te quiero pa´ que me quieras
                         C...
te quiero con toda el alma.




by SoNaC32
Calificar esta versión:
Aviso: Este fichero es trabajo propio de su transcriptor y representa su interpretación personal de la canción. El material contenido en esta página es para exclusivo uso privado, por lo que se prohibe su reproducción o retransmisión, así como su uso para fines comerciales.