Some Things Last A Long Time, Daniel Johnston (acordes)

Autor: ZASOS777 | 44764 visualizaciones



SOME THINGS LAST A LONG TIME

C7+/add13 Cmaj7 Dsus2/F F7+ x2

C7+/add13 Cmaj7 Dsus2/F F7+ x4
Your picture is still on my wall, on my wall

C7+/add13 Cmaj7 Dsus2/F F7+ x4
The colors are bright, bright as ever

[Puente]
Red is strong and blue is pure

(G)                (F)             (C)
Some things last a long time
(G)                (F)             (C)
Some things last a long time  

C7+/add13 Cmaj7 Dsus2/F F7+ x2

C7+/add13 Cmaj7 Dsus2/F F7+ x4
Your picture is still on my wall, on my wall

C7+/add13 Cmaj7 Dsus2/F F7+ x4
I think about you often, often

[Puente]
I won't forget all the things we did

(G)                (F)             (C)
Some things last a long time  
(G)                (F)             (C)
Some things last a long time

C7+/add13 Cmaj7 Dsus2/F F7+ x2

C7+/add13 Cmaj7 Dsus2/F F7+ x4
It's funny, but it's true

C7+/add13 Cmaj7 Dsus2/F F7+ x4
And it's true, but it's not funny

[Puente]
Time comes and goes, All of the while

(G)      (F)               (C)
I still think about you
(G)                (F)             (C)
Some things last a long time

C7+/add13 Cmaj7 Dsus2/F F7+ x4
Your picture is still on my wall, on my wall

C7+/add13 Cmaj7 Dsus2/F F7+ x4
The colors are bright, bright as ever

[Puente]
The things we did, I can't forget

(G)                (F)             (C)
Some things last a lifetime
(G)                (F)             (C)
Some things last a lifetime
(G)                (F)             (C)
Some things last a lifetime

C7+/add13 Cmaj7 Dsus2/F F7+ x2


Acordes:

C7+/add13 Cmaj7 Dsus2/F F7+

Your picture is still on my wall, on my wall
The colors are bright, bright as ever

---------------------------------------------------

------------------3----1--------------------------

---2----0------ -2----2--------------------------

---2----2---2---3--- 3--------------------------

---3----3-----------------------------------------

---------------------------------------------------

Red is strong and blue is pure

[Puente]
----------------------------------------------------

--------------------------3---1---0-----0--1-----

--2--0--------------0----------------2------------

----------3--2--3-------3---3---3--3--3--3-----

--3--3---3--3--3--3------------------------------

-----------------------------------------------------

(G)                (F)             (C)
Some things last a long time
(G)                (F)             (C)
Some things last a long time





Comentarios del colaborador: Traducción Propia

Calificar esta versión:
Aviso: Este fichero es trabajo propio de su transcriptor y representa su interpretación personal de la canción. El material contenido en esta página es para exclusivo uso privado, por lo que se prohibe su reproducción o retransmisión, así como su uso para fines comerciales.