Al Colegio No Voy Mas, Daniel F (acordes)

Autor: Daemon195 | 18574 visualizaciones

b5csos5dsos5fsos5gsos5
-|----------------------------------------------------|
G-|--6-6-6-6-6-6-------4/3-----------------------------|
D-|--6-6-6-6-6-6-4~--4-4/3-6--6-6-6-6-6-6/4-4-4--------|
A-|--4-4-4-4-4-4-4~--4-2/1-6--6-6-6-6-6-6/4-4-4--------|
E-|--------------2~--2-----4--4-4-4-4-4-4/2-2-2--------|


  VERSO 1:
   F#5                     G#5 
  Me ha llegado al pincho, la leccion de hoy,
     B5         F#5      B5 C#5 
  matemática, religion.
   F#5                     G#5 
  Pasar lista o cantar el himno al dios
   B5             F#5      B5 C#5 
  o respetar al profesor.


  CORO:  

       Al colegio no voy mas ni huevon
E-|----------------------------------------------------|
B-|----------------------------------------------------|
G-|--4-4-4-4-6-6-6-6-6----------8-8/6/4----------------|
D-|--4-4-4-4-6-6-6-6-6-4-4-4-4--8-8/6/4----------------|
A-|--2-2-2-2-4-4-4-4-4-4-4-4-4--6-6/4/2----------------|
E-|--------------------2-2-2-2-------------------------|


      Que se queden con su mierda entera
E-|----------------------------------------------------|
B-|----------------------------------------------------|
G-|--4-4-4-4-6-6-6-6-6-8-8-8-8-8-----------------------|
D-|--4-4-4-4-6-6-6-6-6-8-8-8-8-8-8-8-8-8---------------|
A-|--2-2-2-2-4-4-4-4-4-6-6-6-6-6-8-8-8-8---------------|
E-|------------------------------6-6-6-6---------------|

 
 
       Al colegio no voy mas ni huevon ,  para que
E-|----------------------------------------------------|
B-|----------------------------------------------------|
G-|--4-4-4-4-6-6-6-6-6----------8-8/6/4--4-4-4/6-6-----|
D-|--4-4-4-4-6-6-6-6-6-4-4-4-4--8-8/6/4--4-4-4/6-6-----|
A-|--2-2-2-2-4-4-4-4-4-4-4-4-4--6-6/4/2--2-2-2/4-4-----|
E-|--------------------2-2-2-2-------------------------|


  VERSO 2:
   F#5                     G#5 
  No he tenido la primaria o superior
     B5             F#5      B5 C#5 
  siempre la misma opresion.


   F#5-G#5 
   B5-F#5-B5-C#5 


  CORO:
  B5   C#5          F#5      D#5 C#5 B5
  Al colegio no voy mas ni huevon
   B5     C#5           D#5     H5
  que se queden con su mierda entera
   B5   C#5           F#5      D#5 C#5 B5
  A esa mierda no voy mas ni huevon,  
    B5   C#5         D#5      H5
  que se queden con toda esa huevada educativa
   B5   C#5        F#5       D#5 C#5 B5
  Al colegio no voy mas ni huevon,       
   B5  C#5   B5  C#5  
  para que, para que
         F#5      D#5 
  si yo ya se un monton
   B5  C#5   B5  C#5    B5  C#5   B5  C#5
  Para que, para que , para que, para que
     F#5         D#5       B5         C#5
  Para nada, para nada, para nada, para NADA



  ACORDES:

    F#5 G#5 B5 C#5 D#5
E-|--------------------------|
B-|--------------------------|
G-|---------4---6---8--------|
D-|--4---6--4---6---8--------|
A-|--4---6--2---4---6--------|
E-|--2---4-------------------|
Calificar esta versión:
Aviso: Este fichero es trabajo propio de su transcriptor y representa su interpretación personal de la canción. El material contenido en esta página es para exclusivo uso privado, por lo que se prohibe su reproducción o retransmisión, así como su uso para fines comerciales.