High Enough, Damm Yankees (acordes)

Autor: sebas_ps3 | 25505 visualizaciones

aambmddbdoeffsosg


A 
I don`t want to hear about it anymore,
F#
It`s a shame I`ve got to live without you anymore.
D
There`s a fire in my heart,
E
A pounding in my brain, it`s driving me crazy.

[same chord progression for second verse]

We don`t need to talk about it anymore.
Yesterday`s just a memory; can we close the door?
I just made one mistake,
I didn`t know what to say when you called me baby.

w/ dist
light PM----------------
e-----------------------------------|
b-----------------------------------|
g-----------------------------------|
d----------7-------7------7--2--3---|
a--5--5-5--5--5-5--5--5-5-5--2--3---|
e----------------------------0--1---|

F G
Don`t say goodnight,
F Am
Say you`re gonna stay forever,
F G Am
Oh, whoa, all the way.

Chorus :
D Db Bm
Can you take me high enough
E * G *second guitarplays riff below..
to fly me over-me over yesterday?
D Db Bm
Can you take me high enough?
E G
It`s never over and yesterday`s just a memory,
Yesterday`s just a memory.

guitar 2
e--------------------------------|
b--------------------------------|
g---9-/11--9--7--/9--7--------|
d--------------------------7---|
a---7-/9---7--5--/7--5--------|
e--------------------------5---|

[same chord progression]

And I don`t want to live without you anymore.
Can`t you see I`m in misery? and you know for sure
I would live and die for you
And I`d know just what to Do when you call me baby.

Prechorus :
w/ dist
light PM----------------
e-----------------------------------|
b-----------------------------------|
g-----------------------------------|
d----------7-------7------7--2--3---|
a--5--5-5--5--5-5--5--5-5-5--2--3---|
e----------------------------0--1---|

F G
Don`t say goodnight,
F Am
Say you`re gonna stay forever,
F G Am
Oh, whoa, all the way.

Chorus :
D Db Bm
Can you take me high enough
E * G
to fly me over-me over yesterday?
D Db Bm
Can you take me high enough?
E G
It`s never over and yesterday`s just a memory,

guitar 2
e--------------------------------|
b--------------------------------|
g---9-/11--9--7--/9--7--------|
d--------------------------7---|
a---7-/9---7--5--/7--5--------|
e--------------------------5---|

Bm A 
I was running
Bm A 
I was running for the door
Bm A 
The next thing I remember
Bm G A 
I was running back for more
A
Oo, yeah, yeah, yeah, yeah, yeah.

Solo : w/ distortion and wah
e---------------------------------------------------------------|
b---------------------------14-17p16----------------------------|
g---16bvvv-16br16p14--16vv-----------16p14----14--------11bvvv--|
d------------------------------------------16----17p16----------|
a---------------------------------------------------------------|
e---------------------------------------------------------------|

e------------------------------------12---------12--------------|
b--15bvvv--15b-r15-12------15-----------12-15b-----12-----------|
g----------------------14b-----14b17------------------14bvvvv---|
d---------------------------------------------------------------|
a---------------------------------------------------------------|
e---------------------------------------------------------------|

e-----------------------------------------------------------------|
b---17b20vvvv-r17vv------14---------------------------------------|
g--------------------16bvvv-17-16p14------------------------------|
d------------------------------------16b18vvvv--h18------h18--16--|
a----------------------------------------------------19-----------|
e-----------------------------------------------------------------|

e------------------12------------------------|
b-------------15bvv---15-12------------------|
g---------------------------14-12----14bvvvv-|
d--14vvvv-x----------------------14---------|
a----------x--------------------------------|
e--------------------------------------------|

G A 
Don`t say goodbye
G Bm
Say you`re gonna stay forever,
G A Bm
Oh, whoa, all the way,
E
all the way, Come all the way, yeah.

[w/ same chords as above/no key change for chorus]
Can you take me high enough
Can you fly me over yesterday?
Can you take me high enough?
It`s never over, whoa, whoa, whoa, whoa.
Can you take me high enough
Won`t you fly me over yesterday?
Can you take me high enough?
It`s never over, whoa, whoa, whoa, whoa 





Calificar esta versión:
Aviso: Este fichero es trabajo propio de su transcriptor y representa su interpretación personal de la canción. El material contenido en esta página es para exclusivo uso privado, por lo que se prohibe su reproducción o retransmisión, así como su uso para fines comerciales.