Himno Nacional A La Cumbia, Damas Gratis (tablatura)

Autor: Anónimo | 23153 visualizaciones



La danza de los mirlos - Damas gratis


1/--------------------------------------/
2/--------------------------------------/
3/--------------------------------------/
4/-----------0h2-2-2-2-2-----0h2----------/
5/-0-0-0-0-3-------------2---------------/
6/------------------------------------/ (x4)


1/-----0-0-0-0h3-----------------/
2/---1-----------0-3----1--------/
3/-2------------------2---------/
4/------------------------------/
5/-----------------------------/
6/-------------------------/(x2)


1/-----3-2-1-0----------------------/
2/---1---------3-2-1-0-3-1-0---1----/
3/-2-------------------------2--/
4/--------------------------------/
5/-------------------------------/
6/--------------------------------/(x3)



1/-----------------------------------/
2/----------------------------------/
3/----------------------------------/
4/------0h2-2-2-2-2----0h2------------/
5/-0-2--------------2---------------/
6/----------------------------------/(x1)



1/--------------------------------------/
2/--------------------------------------/
3/--------------------------------------/
4/-----------0h2-2-2-2-2-----0h2----------/
5/-0-0-0-0-3------------22-------------/
6/------------------------------------/ (x3)



1/-----0-0-0-0h3-----------------/
2/---1-----------0-3----1--------/
3/-2------------------2---------/
4/------------------------------/
5/-----------------------------/
6/-------------------------/(x2)




1/-----3-2-1-0----------------------/
2/---1---------3-2-1-0-3-1-0---1----/
3/-2-------------------------2------/
4/-----------------------------------/
5/----------------------------------/
6/--------------------------------/(x3)




1/---------8--10s12--12-12----10----8-/
2/---10--------------------12----10---/
3/-9----9-----------------------------/
4/------------------------------------/
5/------------------------------------/
6/------------------------------------/
                                (x4)



1/-----------------------------------/
2/---1-------------------------1-----/
3/-2---2--0-0-0-0-4h0---2-2-2----2---/
4/-----------------------------------/
5/-----------------------------------/
6/-----------------------------------/


---------------------------/
---------------------1-----/
0-0-0-0-4h0---2-2-2----2---/
---------------------------/
---------------------------/
---------------------------/(x3)


miren amigitos el tema esta perfecto
ni un solo error
pongan en youtuve dievo87 la danza de los mirlos
y lo van a ver el tema
esta perfecto
espero q sirva chau





Calificar esta versión:
Aviso: Este fichero es trabajo propio de su transcriptor y representa su interpretación personal de la canción. El material contenido en esta página es para exclusivo uso privado, por lo que se prohibe su reproducción o retransmisión, así como su uso para fines comerciales.