Mueve La Cola, Dalmata (tablatura)

Autor: rucarse | 23902 visualizaciones

Tablatura Mueve La Cola-Dalmata

e---2-2-2-3-2-0-0-0-2-0-3-3-3-5-3-0-0-0---------|
B---------------------------------------3-5-3---|
G-----------------------------------------------| x2
D?----------------------------------------------|
A-----------------------------------------------|
E-----------------------------------------------|


e---2-----2-----2---0-----0-----0---3-----3-----3-0-----0-----0-|
B-----3-----3---------2-----2---------3-----3-------2-----2-----|
G-------2-----2---------2-----2---------0-----0-------2-----2---|x2
D?--------------------------------------------------------------|
A---------------------------------------------------------------|
E---------------------------------------------------------------|

by: rucarse
Calificar esta versión:
Aviso: Este fichero es trabajo propio de su transcriptor y representa su interpretación personal de la canción. El material contenido en esta página es para exclusivo uso privado, por lo que se prohibe su reproducción o retransmisión, así como su uso para fines comerciales.