Sueña Soñador, Dalevuelta (tablatura)

Autor: Anónimo | 32853 visualizaciones



ya miren va a ser asi desde ahora.
1)NO ME AGREGUEN A SU MSN (a menos ke seas peruana y estes bien buena)
2)SE MANDAN EMAILS PARA CORREGIR.
3)POR FAVOR SI LES GUSTO LA TABLATURA VOTEN CON UN NUMERO ALTO

PERUANOS TODOS AYUDEN A CREECER A SU ESCENA LOCAL!!
NO COMPREN PIRATA!!ESCUCHEN PERU, ES DECIR SU MUSICA
FUERA CHILE!!!!!MUERTE A ESOS RETARDADOS CHILENOS!!!

BUENO ACLARADO EL ASUNTO AHI LES VA ESTE TAB:

INTRO:

e|---------------------------------------------------------------|
b|---------------------------------------------------------------|
g|------1-1-2-4-2-1------1-1-2-4-2-1--2-2------------------------|
d|-2-2---------------2-2--------------2-2--2-4-2-4-6-4-2---------|
a|-2-2---------------2-2--------------0-0---------------0--------|
E|---------------------------------------------------------------|

e|---------------------------------------------------------------|
b|---------------------------1-1-2-4-2-1-------1-2-4-6-4-2-1-2-4-|
g|-2-2-----------------------------------------------------------|
d|-2-2--2-4-2-4-6-4-2----2-2---------------2-2-------------------|
a|-0-0----------------2--2-2---------------2-2-------------------|
E|---------------------------------------------------------------|

e|------------------------------------------------------|
b|------------------------------------------------------|
g|-2-2-------------------4-4----------------------------|
d|-2-2--2-4-2-4-6-4-2----2-2--2-4-2-4-6-4-2-2-4-2-------|
a|-0-0----------------0---------------------------------|
E|------------------------------------------------------|


Verso_:


  e5
  talvez por mi confianza
                                   A5
  mantenga la apareiencia de un seductor
   e5
  no entrego lo k dava
                                 A5
  no entiendo la mirada de un soñador
  F#5                          A5
  pero el libreto se ajusto al reglon
  F#5                  B5
  por k el k sueña soy yo

  e5
  ya no me importa tanto

  saber que no soy nada
  A5         A5/G#5/A5
  si una razòn
  e5
  admiro las disculpas

  de aquellos k la buscan en
  A5         A5/G#5/A5/G#5/A5
  su interior.

  F#5            A5
  Reconociendo cual fue el error
  F#5            B5
  alimentando un patron
  A5  B5  f#5 e5   A5  B5 f#5 e5
  de solucion  ,  de solucion

  Intro

  Verso:

  y akaba kon estos akordes

  e5-f#5-a5(todos en los ultimos trastes por ejemplo e5 es en el septimo)

YA ESO ES TODO MUCHAS GRACIAS POR VER ESTE TAB Y YA VOY A PONER MAS DE DALEVUELTA
DISCO EL DEL DISCO mUnDo De PaPeLOK
sALUDOS A TODA MI GENTE MIS BRODER MIS PATAS,Y A LA BANDA DJMX
Y A RENZO DE DALEVUELTA POR LA INSPIRACION

Fuente original: LaCuerda
Colaborador original: Daniel C T [d_cabrerat@hotmail.com]





Calificar esta versión:
Aviso: Este fichero es trabajo propio de su transcriptor y representa su interpretación personal de la canción. El material contenido en esta página es para exclusivo uso privado, por lo que se prohibe su reproducción o retransmisión, así como su uso para fines comerciales.