Instant Crush, Daft Punk (tablatura)

Autor: gavoroca | 20177 visualizaciones

Verso (capo en el 1 traste) 
e|-3-3-3-1---1-1-0---0-0-1---1-1----------------------------------|
B|-1-1-1-1---1-1-1---1-1-1---1-1---3-3-3-1---1-1-0---0-0-1---1-1--|
G|-2-2-2-2---2-2-2---2-2-2---2-2---2-2-2-2---2-2-2---2-2-2---2-2--|
D|-3-3-3-3---3-3-3---3-3-3---3-3---0-0-0-0---0-0-0---0-0-0---0-0--|
A|----------------------------------------------------------------|
E|-1-1-1-1---1-1-1---1-1-1---1-1----------------------------------|

e|----------------------------------------------------------------|
B|-3-3-3-1---1-1-0---0-0-1---1-1---3-3-3-1---1-1-0---0-0-1---1-1--|
G|-2-2-2-2---2-2-2---2-2-2---2-2---0-0-0-0---0-0-0---0-0-0---0-0--|
D|-2-2-2-2---2-2-2---2-2-2---2-2---0-0-0-0---0-0-0---0-0-0---0-0--|
A|-0-0-0-0---0-0-0---0-0-0---0-0---2-2-2-2---2-2-2---2-2-2---2-2--|
E|---------------------------------3-3-3-3---3-3-3---3-3-3---3-3--|

coro
   Am               G    F                    Em  Dm                   Am  G  
e|------------------3----1---1-1--1-------1---0---1---1-1--1-------1-------3-|
B|-1---1--x-x--1-x--3-x--1---1-1--1--x-x--1-x-0-x-3---3-3--3--x-x--3-x-1-x-3-|
G|-2---2--x-x--2-x--0-x--2---2-2--2--x-x--2-x-0-x-2---2-2--2--x-x--2-x-2-x-0-|
D|-2---2--x-x--2-x--0-x--3---3-3--3--x-x--3-x-2-x-0---0-0--0--x-x--0-x-2-x-0-|
A|-0---0--x-x--0-x--2-x--3---3-3--3--x-x--3-x-2-x-------------x-x----x-0-x-2-|
E|------------------3----1---1-1--1-------1---0----------------------------3-|




Em e|--3-3--3---3-3-3-----------------------------------------------------------| B|--3-3--3---3-3-3-----------------------------------------------------------| G|--0-0--0---0-0-0-----------------------------------------------------------| D|--0-0--0---0-0-0-----------------------------------------------------------| A|--2-2--2---2-2-2------0h3--------------------------------------------------| E|--3-3--3---3-3-3--0h3-----0h3----------------------------------------------| Solo sin capo - 1 - e|-----------------------------------18------20------21------21b23-----------| B|--------pb14r13-11----pb18r16-14-------18------18------18------------------| G|---------------------------------------------------------------------------| D|---------------------------------------------------------------------------| A|---------------------------------------------------------------------------| E|---------------------------------------------------------------------------| - 1 - e|-20h21p20--18------20h21p20------------------------------------------13----| B|---------------18----------------------9/11/13--11~----13b14r13--11--------| G|---------------------------------------------------------------------------| D|---------------------------------------------------------------------------| A|---------------------------------------------------------------------------| E|---------------------------------------------------------------------------| - 1 - e|---------------------------------------------------------------------------| B|-11--13b14~--13h14p13\11h13p11-7h9p7--6--4---10h11p10--11/14-11----13h16p13| G|---------------------------------------------------------------------------| D|---------------------------------------------------------------------------| A|---------------------------------------------------------------------------| E|---------------------------------------------------------------------------|

Comentarios del colaborador: a mi parecer esta cancion esta facil y es muy bonita la cancion... con un significado medio raro pero muy bonita cancion suerte al tocarla esta muy facil

Calificar esta versión:
Aviso: Este fichero es trabajo propio de su transcriptor y representa su interpretación personal de la canción. El material contenido en esta página es para exclusivo uso privado, por lo que se prohibe su reproducción o retransmisión, así como su uso para fines comerciales.