Yo Me Llamo, Cumbia Pa Bailar (acordes)

Autor: wilxox | 50171 visualizaciones

aamcdme7g


INTRO:
E ---0-0-5-0-5-4-0---0-0-7-0-7-5-0---
B -----------------------------------
G -----------------------------------
D -----------------------------------
A -----------------------------------
E -----------------------------------

E ---0-0-5-0-5-4-0---0-0-7-0-7-5-5-5-5-5---
B -----------------------------------------
G -----------------------------------------
D -----------------------------------------
A -----------------------------------------
E -----------------------------------------

VERSO 1:
             Am                                E7
Yo me llamo cumbia, yo soy la reina por donde voy
                                                Am
no hay una cadera que se esté quieta donde yo estoy
              A                           Dm
mi piel es morena como los cueros de mi tambor
               Am              E7              Am
y mis hombros son un par de maracas que besa el sol 
Dm               Am              E7               Am
  y mis hombros son un par de maracas que besa el sol 

VERSO 2:
                G                                 C
Tengo en la garganta una fina flauta que Dios me dió
           G                                    C
canuto de millo, olor de tabaco, aguardiente y ron
            A                                 Dm
tomo mi mochila, enciendo la vela y repica el son
               Am                E7             Am
y enredo en la luna y en las estrellas toda mi voz 
Dm                Am              E7               Am
  y enredo en la luna y en las estrellas toda mi voz 
                              
VERSO 3:
             Am                                E7
Como soy la reina, me hace la corte un fino violín
                                                   Am 
me enamora un piano, me sigue un saxo y oigo un clarín
              A                                 Dm
y toda la orquesta forma una fiesta en torno de mí
             Am                  E7             Am           
y yo soy la cumbia, la hembra coqueta y bailo feliz 
Dm             Am                  E7              Am            
  y yo soy la cumbia, la hembra coqueta y bailo feliz 

VERSO 4:
                G                            C                       
Yo nací en las bellas playas caribes de mi país
               G                             C                                     
soy Barranquillera, Cartagenera, yo soy de ahí
              A                               Dm             
soy de Santa Marta, soy Monteriana, pero eso sí
              Am                   E7          Am
yo soy Colombiana, oh tierra hermosa donde nací 
Dm                Am              E7               Am           
  yo soy Colombiana, oh tierra hermosa donde nací 

OUTRO:
E ---0-0-5-0-5-4-0---0-0-7-0-7-5-0---
B -----------------------------------
G -----------------------------------
D -----------------------------------
A -----------------------------------
E -----------------------------------

E ---0-0-5-0-5-4-0---0-0-7-0-7-5-5-5-5-5---
B -----------------------------------------
G -----------------------------------------
D -----------------------------------------
A -----------------------------------------
E -----------------------------------------

----------------------------------------------------------
ESTA CANCIÓN VA DEDICADA PARA EL COMBO DE LAS PACHANGAS...
USTEDES SABES QUIENES SON...

Cualquier duda, comentario o sugerencia será bienvenido





Calificar esta versión:
Aviso: Este fichero es trabajo propio de su transcriptor y representa su interpretación personal de la canción. El material contenido en esta página es para exclusivo uso privado, por lo que se prohibe su reproducción o retransmisión, así como su uso para fines comerciales.