Oceano, Cuentos Borgeanos (acordes)

Autor: yoni5 | 31879 visualizaciones

amdodo5fafa5lasoslamsolsol5


 Do5                Sol5       Fa5
    Puedes destruir    mi corazón
            Fa5
    Tienes tanto odio sobre mi 
Do                  La#
Que lejos quedó el sueño que
       Am          Do
construimos como una verdad
Do            La#        Lam   Sol 
y ahora solo queda el vació de saber
que no hay después

Do                 Sol        Fa
    Puedes destruir    mi corazón
            Fa
    Tienes tanto odio sobre mi 

Que lejos veo tu nombre,
mi refugio y mi fragilidad
es cuando los recuerdos solo queman
y te acercan al dolor

Puedes destruir mi corazón
Tienes tanto odio sobre Mi 
Pero al descubrir un océano sin nombre





[SOLO]
------------------------------------------
-8-7-----8-7------------------------------
-----8--------8--8-9-8-7--7-8-7--8-9-8----
------------------------------------------
------------------------------------------
------------------------------------------

-------------------------------
-8-7---8-7---------------------
-----8-----8--8-9-8-7--7-8-7-9-
-------------------------------
-------------------------------
-------------------------------

--11-10----11-10-------------------------------------
--------11-------11--11-12-11-10--10-11-10--11-12-11-
-----------------------------------------------------
-----------------------------------------------------
-----------------------------------------------------
-----------------------------------------------------

-11-10----11-10--------------------------------------
-------11-------11--11-12-11-10--10-11-10-12---------
-----------------------------------------------------
-----------------------------------------------------
-----------------------------------------------------
-----------------------------------------------------



Puedes destruir mi corazón
Tienes tanto odio sobre mi 
Pero al descubrir un océano sin nombre
me quedare cno el slencio.






bueno creoo que el solo esta bien... sinoo saquenloo y mandenmelo a yoni5_07@hotmail.com
 





Calificar esta versión:
Aviso: Este fichero es trabajo propio de su transcriptor y representa su interpretación personal de la canción. El material contenido en esta página es para exclusivo uso privado, por lo que se prohibe su reproducción o retransmisión, así como su uso para fines comerciales.