Introduccion A La Cueca, Cuecas Chilenas (tablatura)

Autor: Emmarox | 19613 visualizaciones

e||---------------------------------|
B||---------------------------------|
G||---------------------------------|      DESPUES SE TOCA UN:
D||----0-2-3-2-3--------------------|         SolM (rasgueado)
A||-3-------------------------------|
E||---------------------------------|


e||---3--5--3--1-0------------------|
B||-----------------3---------------|
G||---------------------------------|      DESPUES SE TOCA UN:
D||---------------------------------|         DoM (rasgueado)
A||---------------------------------|
E||---------------------------------|

e||---------------------------------|
B||---------------------------------|        DESPUES SE TOCA UN:
G||---------------------------------|       SolM (rasgueado)
D||-- 2-0-0-------------------------|         
A||--3-2-0--------------------------|
E||---------------------------------|


e||---------------------------------|
B||---------------------------------|
G||- -2-0-0-------------------------|      DESPUES SE TOCA UN:
D||--3-2-0--------------------------|          DoM (rasgueado)
A||---------------------------------|
E||---------------------------------|


Comentarios del colaborador: Y es eso despues viene la cueca y nada chao

Calificar esta versión:
Aviso: Este fichero es trabajo propio de su transcriptor y representa su interpretación personal de la canción. El material contenido en esta página es para exclusivo uso privado, por lo que se prohibe su reproducción o retransmisión, así como su uso para fines comerciales.