No Regreses, Cuatro Y Medio (tablatura)

Autor: david_pxndx | 34501 visualizaciones

Notas:
   B   C#  D   E1  E2  F#  G  F#2
e|--- --- --- --- --- --- --- ----
B|--- --- --- --- --- --- --- ----
G|--- --- --- --- --- --- --- ----
D|-4- -6- -7- -9- -2- --- --- -12-
A|-2- -4- -5- -7- -2- -4- -5- -10-
E|--- --- --- --- -0- -2- -3- ----


Intro
B - C# - D - E1

B                     C#
Fui la persona a quien llego 
                 D
directo a tu corazon sin usar
           E1
engaños ni mentiras
B                 C#
tu no tuviste el valor
               D
pero poco te importo decirme
       E1
que ya no me quierias

B - G - E2 - G x2

luewo va el pre-verso
B - G - E2 x2

i x ultimo
B - F# - G - E2 - F# - G x2


B                     C#
Dije que algun dia yo seria quien
D                           E
guardaria tu corazon dentro de mi piel
B                       C#
con un beso en la mejia me dijiste amor
D                              E
con un abrazo fuertemente me dijiste adios


Coro
D                  A
Sigo esperando en el amanecer
F#                   G
que a mi lado estes, que a mi lado estes
D                  A
Sigo esperando en el amanecer
F#                   G
que a mi lado estes, que a mi lado estes


puente:
B - C# - D - E1 - F#2 x3

                           A
Sigo esperando en el amanecer
F#                   G
que a mi lado estes, que a mi lado estes
D                  A
Sigo esperando en el amanecer
F#                   G
que a mi lado estes, que a mi lado estes


B - C# - D - E1

B                 C#
Tu no llegaste a mi cumpleaños 
                     D              
aun que juntos lo planeamos
                   E1
yo pense que se te habia olvidado


el levante va azi
B - G - D - C# x4


Guitarra principal
Intro
B - C# - D - E1

B                     C#
Fui la persona a quien llego 
                 D
directo a tu corazon sin usar
           E1
engaños ni mentiras
B                 C#
tu no tuviste el valor
               D
pero poco te importo decirme
       E1
que ya no me quierias

e|----------------------------------------------|
B|------------(zolo haien el ritmo)-------------|
G|----------------------------------------------|
D|---4------------4----------2222222222---------|x2
A|-2---5-2-4-5--2---5-2-4-5--2222222222-5555555-|
E|---------------------------0000000000-3333333-|

luewo
e|----------------------------------------|
B|----------------------------------------|
G|----------------------------------------|
D|-4444444444-444444444-----------2222222-|
A|-2222222222-222222222-55555555--2222222-|
E|----------------------33333333--0000000-|

I zto kn pm
e|---------------------------------------|
B|(ammmm creo q zto no va azi pro da la idea xD)|
G|---------------------------------------|
D|-2222222h4h-2-2222222------------------|x2
A|----------------------222222h4---------|
E|-------------------------------0000000-|

luewo
e|---------------------|
B|---------------------|
G|---------------------|
D|---4------5----4-----|
A|-2---5-2--3--2---5-2-|
E|---------------------|


i x ultimo
B - F# - G - E2 - F# - G x2


B                     C#
Dije que algun dia yo seria quien
D                           E
guardaria tu corazon dentro de mi piel
B                       C#
con un beso en la mejia me dijiste amor
D                              E
con un abrazo fuertemente me dijiste adios

Sigo esperando en el amanecer.....
e|---------------5----------6-3---------|
B|-4-5-7-5-4-5-7---7-4544-4-----6-8-6-4-|

puente:
B - C# - D - E1 - F#2


e|------------------------------------------------------------------|
B|-404040404040404040-3030303030303030-4040404040404040404040404040-|x2

puente:
B - C# - D - E1 - F#2


Sigo esperando en el amanecer.....
e|---------------5----------6-3---------|
B|-4-5-7-5-4-5-7---7-4544-4-----6-8-6-4-|


B - C# - D - E1

B                 C#
Tu no llegaste a mi cumpleaños 
                     D              
aun que juntos lo planeamos
                   E1
yo pense que se te habia olvidado


el levante va azi
B - G - D - C# x4

Bueno pz ezo ez todo ezpero q lez zirva ammmm el final no lo pude zaqar xD la tab no ezta perfeqta pro
 almenoz da la idea hehe mueno correcciones i cualqier duda zcribanme tankian_28@hotmail.com
Calificar esta versión:
Aviso: Este fichero es trabajo propio de su transcriptor y representa su interpretación personal de la canción. El material contenido en esta página es para exclusivo uso privado, por lo que se prohibe su reproducción o retransmisión, así como su uso para fines comerciales.