Nightmare, Crooked X (tablatura)

Autor: peacemaker | 14391 visualizaciones



----------------------------------------------------------------------------
                         Nightmare - Crooked X
----------------------------------------------------------------------------
Tabbed By: peace maker
Email: guitar_rockmen@hotmail.com.com o perro_mayo@hotmail.com

Tunning: Standard


e|-12----10-(10)-10-12-------------12----10-(10)----12---------|
B|-12-12-10-(10)-10-12-12-(12)-----12-12-10-(10)-11-12-12-(12)-|
G|----12---------------12-(12)--------12---------10----12-(12)-|
D|-------------------------------------------------------------|
A|-------------------------------------------------------------|
E|-------------------------------------------------------------|

Play this 3X

e|-12-----------------------------------------------------------------|
B|------12---13---10---12---------------------------------------------|
G|---9-9--9-9--9-9--9-9--9-12-9-14-9-9-11-9-9-12-9-9-14-9-9-12-9-11-9-|
D|--------------------------------------------------------------------|
A|--------------------------------------------------------------------|
E|--------------------------------------------------------------------|

Play this 2X

e|------------------------------------------|
B|------------------------------------------|
G|------------------------------------------|
D|-------------------------------4----------|
A|-2-----4-7-2-----7-4-2-----4-7-2-7-5-4----|
E|-0-0-0-2-5-0-0-0-5-2-0-0-0-2-5---5-3-2----|
Pm:  . .       . .       . .

Play this 3X

e|------------------------------------------------------------------|
B|------------------------------------------------------------------|
G|------------------------------------------------------------------|
D|------------------------------------------------------------------|
A|---------5---------------5---------------5-------222--------------|
E|-000-0-0-3-0-0-0-000-0-0-3-0-0-0-000-0-0-3-0-0-0-----555-333-222--|
Pm:... . .   . . . ... . .   . . . ... . .   . . . ... ... ... ...

Play this in place of whats above on the forth time through.

e|-----------------------------------------------------|
B|-----------------------------------------------------|
G|-----------------------------------------------------|
D|-----------------------------------------------------|
A|---------5---------------5-2-2-2-2--2-2-2-2-2-2-2-2--|
E|-000-0-0-3-0-0-0-000-0-0-3-0-0-0-0--0-0-0-0-0-0-0-0--|
Pm:... . .   . . . ... . .   . . . .  . . . . . . . .

Play this 2X

e|------------------------------------------|
B|------------------------------------------|
G|------------------------------------------|
D|-------------------------------4----------|
A|-2-----4-7-2-----7-4-2-----4-7-2-7-5-4----|
E|-0-0-0-2-5-0-0-0-5-2-0-0-0-2-5---5-3-2----|
Pm:  . .       . .       . .

e|------------------------------------------------------------|
B|------------------------------------------------------------|
G|------------------------------------------------------------|
D|---------7--(7)--------------------------7--(7)-------------|
A|-2--(2)--5--(5)--5--(5)--7--(7)--2--(2)--5--(5)--5--(5)--7--|
E|-0--(0)----------3--(3)--5--(5)--0--(0)----------3--(3)--5--|

Play this 2X

e|------------------------------------------|
B|------------------------------------------|
G|------------------------------------------|
D|-------------------------------4----------|
A|-2-----4-7-2-----7-4-2-----4-7-2-7-5-4----|
E|-0-0-0-2-5-0-0-0-5-2-0-0-0-2-5---5-3-2----|
Pm:  . .       . .       . .

Play this 3X

e|------------------------------------------------------------------|
B|------------------------------------------------------------------|
G|------------------------------------------------------------------|
D|------------------------------------------------------------------|
A|---------5---------------5---------------5-------222--------------|
E|-000-0-0-3-0-0-0-000-0-0-3-0-0-0-000-0-0-3-0-0-0-----555-333-222--|
Pm:... . .   . . . ... . .   . . . ... . .   . . . ... ... ... ...

Play this one in place of whats above for the forth time through.

e|-----------------------------------------------------|
B|-----------------------------------------------------|
G|-----------------------------------------------------|
D|-----------------------------------------------------|
A|---------5---------------5------2-2-2-2-2-2-2-2------|
E|-000-0-0-3-0-0-0-000-0-0-3------0-0-0-0-0-0-0-0------|
Pm:... . .   . . . ... . .        . . . . . . . .

Play this 2X

e|------------------------------------------|
B|------------------------------------------|
G|------------------------------------------|
D|-------------------------------4----------|
A|-2-----4-7-2-----7-4-2-----4-7-2-7-5-4----|
E|-0-0-0-2-5-0-0-0-5-2-0-0-0-2-5---5-3-2----|
Pm:  . .       . .       . .



e|------------------------------------------------------------|
B|------------------------------------------------------------|
G|------------------------------------------------------------|
D|---------7--(7)--------------------------7--(7)-------------|
A|-2--(2)--5--(5)--5--(5)--7--(7)--2--(2)--5--(5)--5--(5)--7--|
E|-0--(0)----------3--(3)--5--(5)--0--(0)----------3--(3)--5--|

e|---------------------|
B|---------------------|
G|---------------------|
D|---------------------|
A|-2-----2-7-2-----7-4-|
E|-0-0-0-2-5-0-0-0-5-2-|
Pm:  . .       . .

This is where the solo begins......but I have not figured it out yet, sorry guys. But 
rate my tab.

| Pm:... Palm Mute
| (0)    Hold the note
   





Calificar esta versión:
Aviso: Este fichero es trabajo propio de su transcriptor y representa su interpretación personal de la canción. El material contenido en esta página es para exclusivo uso privado, por lo que se prohibe su reproducción o retransmisión, así como su uso para fines comerciales.