Up Around The Bend, Creedence Clearwater Revival (acordes)

Autor: DEEP | 31611 visualizaciones

laresol


PARTE 1

--------------10------------
-----------7-------10-7-10--
----------------------------
-----0----------------------
----------------------------
----------------------------
PARTE 2
----------------------------
--------------10------------
--------6----------9-6-9----
----------------------------
----0-----------------------
----------------------------

INTRO

2X PARTE 1 
1X PARTE 2
1X PARTE 1

SIGUE EN BASE DE
 
Re La 

There's a place up ahead and I'm goin', Just as fast as my feet can fly
Come away, come away, if you're goin', Leave the sinkin' ship behind

ESTRIBILLO EN 

Sol Re La 
Come on the risin' wind, We're goin' up around the bend


Bring a song and a smile for the banjo, Better get while the gettin's good
Hitch a ride to the end of the highway, Where the neons turn to wood

ESTRIBILLO




You can ponder perpetual motion, Fix your mind on a crystal day
Always time for a good conversation, There's an ear for what you say


ESTRIBLLO FINAL





Calificar esta versión:
Aviso: Este fichero es trabajo propio de su transcriptor y representa su interpretación personal de la canción. El material contenido en esta página es para exclusivo uso privado, por lo que se prohibe su reproducción o retransmisión, así como su uso para fines comerciales.