The Sunshine Of Your Love, Cream (bajo)

Autor: xxblackxpinkxx | 20748 visualizaciones

    "Sunshine Of Your Love", Cream (de Eric Clapton)
_____________________________________________
·Por Sebastián Ara.
·Buenos Aires, Argentina, 2009
·Email MSN por cualquier duda: playing.the.angel_@hotmail.com
·Sí, sacado de oído.
______________________________________________
*Afinación: EADG (Standard)
*Dificultad: Básico/Intermedio
*Album: "The very best of Cream!"

Intro y versos:
G|----------------------------------
D|12-12-10-12-----------------------
A|-------------12--11--10-----8-----
E|-------------------------10----10-

Variación: (0:34 minutos)
G|12-12-10-12-----------------------
D|-------------12--11--10-----8-----
A|-------------------------10----10-
E|----------------------------------
[repite dos veces y luego vuelve a la Intro]

Estribillo:
G|----------------------------------------
D|----------------------------------------
A|---------------3------------------------
E|-5-5-5-5-------------------3------------

G|----------------------------------------------------
D|----------------------------------------------------
A|---------------3------------------------------------
E|-5-5-5-5-------------------3--------------5555555555...
                                        "...looooove......."


Hace Versos de nuevo.

Hace Estribillo de nuevo.

Acompañamiento del Solo:
G|----------------------------------
D|12-12-10-12-----------------------
A|-------------12--11--10-----8-----
E|-------------------------10----10-

A los 2:18 minutos hace una variación:
G|12-12-10-12-----------------------
D|-------------12--11--10-----8-----
A|-------------------------10----10-
E|----------------------------------
[repite dos veces y luego vuelve al Riff Anterior]

A los 2: 35 minutos hace:
G|----------------------------------------
D|----------------------------------------
A|---------------3------------------------
E|-5-5-5-5-------------------3------------

G|----------------------------------------
D|----------------------------------------
A|---------------3------------------------
E|-5-5-5-5-------------------3------------

G|----------------------------------------
D|----------------------------------------
A|---------------3------------------------
E|-5-5-5-5-------------------3------------

G|----------------------------------------------------
D|----------------------------------------------------
A|---------------3------------------------------------
E|-5-5-5-5-------------------3-------------/5555555555...
                                        "...looooove......."
Luego vuelve a la Intro.

A los 3:15 minutos hace al Variación, la repite dos veces y vuelve a la Intro.

Luego Estribillos Finales:
G|----------------------------------------
D|----------------------------------------
A|---------------3------------------------
E|-5-5-5-5-------------------3------------

G|----------------------------------------
D|----------------------------------------
A|---------------3------------------------
E|-5-5-5-5-------------------3------------

G|----------------------------------------
D|----------------------------------------
A|---------------3------------------------
E|-5-5-5-5-------------------3------------

G|----------------------------------------
D|----------------------------------------
A|---------------3------------------------
E|-5-5-5-5-------------------3------------

G|----------------------------------------
D|----------------------------------------
A|---------------3------------------------
E|-5-5-5-5-------------------3------------

G|----------------------------------------------------------------------------------
D|----------------------------------------------------------------------------------
A|---------------3------------------------------------------------------------------
E|-5-5-5-5-------------------3-------/55555555555555555555555555555555555555555555...

Fade Out y termina la canción.



Calificar esta versión:
Aviso: Este fichero es trabajo propio de su transcriptor y representa su interpretación personal de la canción. El material contenido en esta página es para exclusivo uso privado, por lo que se prohibe su reproducción o retransmisión, así como su uso para fines comerciales.