Sunshine Of Your Love, Cream (tablatura)

Autor: SoS @|b3rt0 | 17065 visualizaciones

Bueno este es mi estilo de sunshine of your love espero que les guste

Intro

   D7      C7
e---------------------------------------------------o
b---------------------------------------------------o
g--11--11---9--11-----------------------------------o
d--10--10---8--10-----------------------------------o
a--12--12--10--12--12--11--10------8h9p8h9----------o
e--10--10---8--10--------------10-----------10------o


Verse

   D7      C7
e---------------------------------------------------o
b------------------------------12-------------------o
g--11--11---9--11--------------12--10h11p10h11------o
d--10--10---8--10--------------12--10-----------12--o
a--12--12--10--12--12--11--10-----------------------o
e--10--10---8--10-----------------------------------o


Bridge

   G       F
e---------------------------------------------------o
b--12--12--10--12-----------------------------------o
g--12--12--10--12-----------------------------------o
d--12--12--10--12--12--11--10-------8---------------o
a--10--10---8--10--------------10-----10------------o
e--10--10---8--10-----------------------------------o



Chorus

   A5       C5   G5
e---------------------------------------------------o
b---------------------------------------------------o
g------------5--------------------------------------o
d--777-------5---5----------------------------------o
a--777-------3---5----------------------------------o
e--555-----------3----------------------------------o
Calificar esta versión:
Aviso: Este fichero es trabajo propio de su transcriptor y representa su interpretación personal de la canción. El material contenido en esta página es para exclusivo uso privado, por lo que se prohibe su reproducción o retransmisión, así como su uso para fines comerciales.