Badge, Cream (acordes)

Autor: elpeineta | 20589 visualizaciones

amam7bmccmaj7demem7gg-b
Esta canción generalmente tiene la intro hecha con acordes,pero les dejo como  se la hace en bajo para que la toquen en guitarra.
INTRO
|----------------|------------------|----------------|-------------------|
|----------------|------------------|----------------|-------------------|
|----------------|------------------|----------------|-------------------|
|----------------|------------------|----------------|-------------------|
|------3---7---3S|=5-5-5-5-5--------|------3---7---3S|=5-5-5-5-5---------|
|-5--------------|--------------3h4h|=5--------------|-----------2--3h4h=|




Am                 D                     Em  Em7
Thinking about the times you drove in my car.
Am              D                        Em  Em7
Thinking that I might have drove you too far.
C                          Am            Bm         Am Bm  Am7
And I'm thinking about the love that you laid on my ta ble.

Am                D                    Em  Em7
I told you not to wander around in the dark.
Am                   D                            Em  Em7
I told you about the swans, that they live in the park.
C                         Am            Bm         Am Bm  Am7
Then I told you about our kid, now he's married to Ma bel.

D C G D 2x

       Am                G          D
Yes, I told you that the light goes up and down.
          Am             G          D
Don't you notice how the wheel goes round?
        Am              G       D
And you better pick yourself up from the ground,
  Am                  G       D
before they bring the curtain down,
       Am                  G       D
yes, before they bring the curtain down.

SOLO
Empieza en 1:07 con coro y delay

   D      Cmaj7[sus2] G/B   G      D              Cmaj7[sus2] G/B   G     D

e|----------|--------------------|------------------|-------------------|---------|
B|----------|------0------0----0-|-----3------------|-----0-----------0-|-----3---|
G|-----2----|----0--------0------|---2---2-----2----|---0----0---0------|---2---2-|REPEAT X4
D|-0-4------|[0]--------0--------|-0-------0-4------|-0------0-0--------|-0-------|
A|--------3-|---------2----------|----------------3-|--------2----------|---------|
E|----------|----------------3---|------------------|---------------3---|---------|

   D
e|-------|
B|-------|
G|-----2-|
D|-0-4---|  
A|-------|
E|-------|

   D                                    Cmaj7[sus2]             G/B
e|-----------------------------------------------|--------------------------10--------------
B|-13b[15]r[14]--13b[15]r[14]--13b[15]--13b[15]~-|-13b[15]r[13]--10-------------------------
G|-----------------------------------------------|------------------12b[14]----12b[14]r[12]-
D|-----------------------------------------------|------------------------------------------
A|-----------------------------------------------|------------------------------------------
E|-----------------------------------------------|------------------------------------------

                                         Cmaj7[sus2]        G/B              G             D
---------|-----------10-----12b[13]r[12]]--10~-|----13b[15]--13b[15]-13b[14]-13b[15]-13b[14]~
---------|---------------10--------------------|-12------------------------------------------
-10b[11]-|----10/11----------------------------|---------------------------------------------
---------|-12----------------------------------|---------------------------------------------
---------|-------------------------------------|---------------------------------------------
---------|-------------------------------------|---------------------------------------------

                                Cmaj7          G/B              G     D 
|-10-----12b[13]r[12]p10-12--10-12~-|-10-----12b[13]r[12]p10h12--10~-|-------10---------14--
|-----10----------------------------|-----10-------------------------|-10h12----12/15~------
|-----------------------------------|--------------------------------|----------------------
|-----------------------------------|--------------------------------|----------------------
|-----------------------------------|--------------------------------|----------------------
|-----------------------------------|--------------------------------|----------------------

                 Cmaj7[sus2]     G/B              G       D 
-15b[17]r[15]p13b[14]-|----------15b[16]]r[15]p13--15-13-|----15b[17]-15b[17]-15b[17]-15b[17]
----------------------|--15-15~--------------------------|-15--------------------------------
----------------------|----------------------------------|-----------------------------------
----------------------|----------------------------------|-----------------------------------
----------------------|----------------------------------|-----------------------------------
----------------------|----------------------------------|-----------------------------------

         Cmaj7[sus2]                G/B           G       D
-15b[17]-15b[17]r[15]p13-|--------------------17----------|-17b[19]r[17]--------------------|
-------------------------|-15\-----15-177b[19]^^r[17]-15~-|--------------17b[18]r[17]-15----|
-------------------------|-----/16------------------------|------------------------------16-|
-------------------------|--------------------------------|---------------------------------|
-------------------------|--------------------------------|---------------------------------|
-------------------------|--------------------------------|---------------------------------|

Cmaj7[sus2]   G/B           G        D
-----------------------------------|----------------------------------------------------
-15~------15-15~----15-15~--15~----|-17bb[19]---18b[20]-18b[19]-18b[20]-18b[19]-18b[20]-
-------16--------16-------------16-|----------------------------------------------------
-----------------------------------|----------------------------------------------------
-----------------------------------|----------------------------------------------------
-----------------------------------|----------------------------------------------------

Cmaj7[sus2]                        G/B            G                D
---------|--------------------------------------------------------|-----------10--10----
-18b[19]-|-18b[20]r[18]--15h17p15------------13-------------------|-----10h12-----10h12-
---------|------------------------16\--//14-----14-14\12--10------|---------------------
---------|---------------------------------------------------12p9-|-12~-----------------
---------|--------------------------------------------------------|---------------------
---------|--------------------------------------------------------|---------------------

                            Am
-10-----------------------|--------------|
-----------------------10-|--------------|
----13\12p10----10-----10-|--------------|
-------------12----12--10-|--------------|
--------------------------|-12~~~~~~~~~--|
--------------------------|--------------|

Am               D                          Em  Em7
Talking  about a girl that looks quite like you.
Am                  D                   Em  Em7
She didn't have the time to wait in the queue.
C                  Am             Bm           Am  Bm   Am7
She cried away her life since she fell off the cra dle
Calificar esta versión:
Aviso: Este fichero es trabajo propio de su transcriptor y representa su interpretación personal de la canción. El material contenido en esta página es para exclusivo uso privado, por lo que se prohibe su reproducción o retransmisión, así como su uso para fines comerciales.