Hallowed Be Thy Name, Cradle Of Filth (tablatura)

Autor: alejandrocoria | 23097 visualizaciones

   

Cradle of Filth 
Halloed Be Thy Name 
  

  
 

Print  
Send to
e-amail 
Add to
Songbook   
more Cradle of Filth, Halloed Be Thy Name tabs at GoogleTabs 

Songbook


 Cradle of Filth 
 Hallowed Be Thy Name 
 
 
>=bend 
/=slide 
t=trill 
 
 
Intro:part 1 
e----------------------------- 
b----------------------------- 
g--12>14---12-10-9h10p9----9-- 
D-----------------------12---- 
A----------------------------- 
E----------------------------- 
 
Intro:part 2 
e------------------------------- 
b------------------------------- 
g--12>14---12-10-9h10p9--------- 
D-----------------------12-11--- 
A------------------------------- 
E------------------------------- 
 
Intro:part 3 
e-------------------------------------- 
b-----------------------12------------- 
g--12>14---12-10-9h10p9-----9-10t12---- 
D-------------------------------------- 
A-------------------------------------- 
E-------------------------------------- 
 
Intro:part 4 
e----------------------------------- 
b-----------------------12---------- 
g--12>14---12-10-9h10p9----9-12/0--- 
D----------------------------------- 
A----------------------------------- 
E----------------------------------- 
 
Intro order: 1, 2, 1, 3, 1, 2, 1, 4 
 
 
Riff 1: 
e------------------------------------ 
b------------------------------------ 
g-----------2------------------------ 
D-2h3p2h3p2---3p2h3p2---------------- 
A---------------------5-------------- 
E------------------------------------           
Or 
e------------------------------------ 
b------------------------------------ 
g---------------2-------------------- 
D-2h3p2h3h5p3p2---3p2h3p2------------ 
A-------------------------5---------- 
E------------------------------------           
 

e--------------------------------------|--------------- 
b--------------------------------------|--------------- 
g-7xx7xx7xx7xx3xx3xx3xx3xx5xx5xx5xx5xx-|-7xx7xx7xx7xx-- 
D-7xx7xx7xx7xx3xx3xx3xx3xx5xx5xx5xx5xx-|-7xx7xx7xx7xx-- 
A-5xx5xx5xx5xx1xx1xx1xx1xx3xx3xx3xx3xx-|-5xx5xx5xx5xx-- 
E--------------------------------------|--------------- 

 
 
Riff 2: 
e---------------------------- 
b---------------------------- 
g-7----2-3----2-5----2-7-2-3- 
D-7----2-3----2-5----2-7-2-3- 
A-5----0-1----0-3----0-5-0-1- 
E---------------------------- 
 
Riff 3: 
e---------------------------------------------- 
b---------------------------------------------- 
g-----------------------------------------7-2-3
D----------------------------------------7-2-3- 
A----------------------------------------5-0-1- 
E---------------------------------------------- 
 
Riff 1: 
 
Riff 4: 
e--------------------------------------- 
b---------------------------------------  
g-------2-----------2-----------2-------  
D---2h3---3p2---2h3---3p2---2h3---3p2h3- 
A-5-----------5-----------5------------- 
E--------------------------------------- 
 
 
Riff 2: 
e---------------------------------------------------------------- 
b---------------------------- -----------------------------------
g-----------------------------------------7xx7------------------- 
D-----------------------------------------7xx7------------------- 
A-----------------------------------------5xx5--3p2p0--3p2p0----- 
E---------------------------------------------------------------- 
 
 
Riff 6: 
e----5------------- 
b--3---5-6--------- 
g------------------ 
D------------------ 
A------------------ 
E------------------ 
 

escuchen el cdd y armenlonn tb a estee temaa
esta muy bueno y bastante facil para al q le
gusta la banda 
cualquier consulta en alejandrocoria_24@live.com.ar

Calificar esta versión:
Aviso: Este fichero es trabajo propio de su transcriptor y representa su interpretación personal de la canción. El material contenido en esta página es para exclusivo uso privado, por lo que se prohibe su reproducción o retransmisión, así como su uso para fines comerciales.