Cthulhu Dawn, Cradle Of Filth (tablatura)

Autor: alejandrocoria | 15488 visualizaciones

   
 
Intro  D A F C G D
Riff 1 
|-------------------------------------------------------------------|
|-------------------------------------------------------------------|
|--------------------------10----------------------------10---------|
|-------------------7-5-7--10-6-------------------7-5-7--10-6--------|
|---7-8-7---7-8-7-5--------8--6---7-8-7---7-8-7-5--------8--6--------|
|-5-------4-------------------4-5-------4-------------------4--------|


Riff 2 guitar 1
|-------------------------------------------------------------------
|-------------------------------------------------------------------
|-------------------------------------------------------------------
|-7-10-9-7-10-9-7-10-9-7-10-9-6-10-9-6-10-9-6-10-9-6-10-9-----------
|-------------------------------------------------------------------
|-------------------------------------------------------------------
  
Riff 2 
|-------------------------------------------------------------------|
|-----------------------------6-9-8-6-9-8-6-9-8-6-9-8---------------|
|-7-10-9-7-10-9-7-10-9-7-10-9---------------------------------------|
|-------------------------------------------------------------------|
|-------------------------------------------------------------------|
|-------------------------------------------------------------------|


Riff 2 guitar 2
|-------------------------------------------------------------------
|-------------------------------------------------------------------
|-------------------------------------------------------------------
|-7-9-10-7-9-10-7-9-10-7-9-10-6-9-10-6-9-10-6-9-10-6-9-10-----------
|-------------------------------------------------------------------
|-------------------------------------------------------------------


Riff 2 
|-------------------------------------------------------------------|
|-----------------------------6-8-9-6-8-9-6-8-9-6-8-9---------------|
|-7-9-10-7-9-10-7-9-10-7-9-10---------------------------------------|
|-------------------------------------------------------------------|
|-------------------------------------------------------------------|
|-------------------------------------------------------------------|


Riff 3 
|-------------------------------------------------------------------|
|-------------------------------------------------------------------|
|-------------------------4-----7-----------------------------------|
|-4-4/5-4-4/5-4-4/5-4-4/5-4-----7-----------------------------------|
|-4-4/5-4-4/5-4-4/5-4-4/5-2-----5-----------------------------------|
|-2-2/3-2-2/3-2-2/3-2-2/3-------------------------------------------|

Riff 4 
|-------------------------------------------------------------------|
|-------------------------------------------------------------------|
|-------------------------------------------------------------------|
|-----------8----10-9-8---------------------------------------------|
|-7----8-------------------7----8-----------------------------------|
|-------------------------------------------------------------------|

Riff 5 
|-------------------------------------------------------------------|
|-------------------------------------------------------------------|
|-6---------6---------6/7-6---------6---------6/7-------------------|
|-6---------6---------6/7-6---------6---------6/7-------------------|
|-4-4-4-4-4-4-4-4-4-4-4/5-4-4-4-4-4-4-4-4-4-4-4/5-------------------|
|-------------------------------------------------------------------|

Riff 6 
|-------------------------------------------------------------------
|-------------------------------------------------------------------
|-------------------------------------------------------------------
|-------------------------------------------------------------------
|-------------------------------------------------------------------
|-0-12h13p12h13-0-12h13p12h13-0-12h13p12h13-0-12h13p12h13-----------
|-------------------------------------------------------------------

Riff 6
|-------------------------------------------------------------------|
|-------------------------------------------------------------------|
|-10-12--10-12--9--11-9--11-----------------------------------------|
|-10-12--10-12--9--11-9--11-----------------------------------------|
|-8--10--8--10--7--9--7--9------------------------------------------|

Riff 7 
|-------------------------------------------------------------------
|-------------------------------------------------------------------
|-------------------------------------------------------------------
|-7h8p7h8-----7h8p7h8-----7h8p7h8-----7h8p7h8-----------------------
|---------0-0---------0-0---------0-0---------0-0-------------------
|-------------------------------------------------------------------


Riff 7 
|-------------------------------------------------------------------|
|-------------------------------------------------------------------|
|-------------------------------------------------------------------|
|-10h11p10h11-----10h11p10h11-----10h11p10h11-----10h11p10h11-------|
|-------------0-0-------------0-0-------------0-0-------------0-0---|
|-------------------------------------------------------------------|
       

Riff 8 
|-------------------------------------------------------------------|
|-------------------------------------------------------------------|
|-------------------------------------------------------------------|
|-------------------------------------------------------------------|
|-8-10-11-8-10-11-8-10-11-8-10-11-----------------------------------|
|-------------------------------------------------------------------|
  
Riff 9 
|-------------------------------------------------------------------|
|-------------------------------------------------------------------|
|-------------------------------------------------------------------|
|-2---------2---------2---------2-----------------------------------|
|-2---------2---------2---------2-----------------------------------|
|-0-0-0-0-0-0-0-0-0-0-0-0-0-0-0-0-0-0-0-0---------------------------|
    
Introo
|-------------------------------------------------------------------|
|-------------------------------------------------------------------|
|-------------------------------------------------------------------|
|-------------------------10-8-10--6----9----10---------------------|
|---10-11-10---10-11-10-8----------6----9----10---------------------|
|-8----------7---------------------4----7----8----------------------|


y ahora el tema continuaa
con asi... se repite siempre
lo mismooo y un consejooo
les recomiendo q para q este
tema se aprendan bien los riff
antes de hacerlos... y escuchen
el tema para marcar bien los temas
una vez q te sepas los 9 rifff
el tema lo teness sacadoo
 Riff 1 x 1
 Riff 2 x 2
 Riff 1 x 1
 Riff 3 x 4
 Riff 4 x 1
 Riff 5 x 1
 Riff 4 x 1
 Riff 5 x 1
  
 Riff 2 x 2
 Riff 1 x 1
 Riff 3 x 4
 Riff 5 x 1
 Riff 4 x 1
 Riff 5 x 1
 Riff 4 x 1
 Riff 5 x 1
 Riff 6 x 2
 Riff 7 x 1
 Riff 8 x 1
 Riff 9 x 1
 Riff 7 x 1
 Riff 8 x 1
 Riff 9 x 1
  
 Riff 1 x 1 (slow)
 introo x 1 (slow)

finnn !!
en realidad va todo juntoo
no hay espacio o tiempo durante
el tema es todo seguidoo pero se 
los separee para q no se pierdann 
jajaja cualquier consultaa en

alejandrocoria_24@live.com.ar
Calificar esta versión:
Aviso: Este fichero es trabajo propio de su transcriptor y representa su interpretación personal de la canción. El material contenido en esta página es para exclusivo uso privado, por lo que se prohibe su reproducción o retransmisión, así como su uso para fines comerciales.