Cruelty Brought Thee Orchids, Cradle Of Filth (tablatura)

Autor: emmfrevil | 43334 visualizaciones

Cruelty Brought Thee Orchids
     

x 2
------------------------------------------
------------------------------------------
------------------------------------------
------------------------------------------
-77777--9--77777--33333--2--55555---------
------------------------------------------

-----------------------------------------------------
-----------------------------------------------------
-----------------------------------------------------
-----------------------------------------------------
-7777777--99--1010101010--3333333-2-3-2-0------------
------------------------------------------3-2-0------

----------------------------------------------------------------------
----------------------------------------------------------------------
----------------------------------------------------------------------
----------------------------------------------------------------------
-7777777--9999999--1010101010--999999----777777--9999999--10-9-7-555--
----------------------------------------------------------------------

Riff 3 /w tremelo

x 1
------------------------------------
------------------------------------
------------------------------------
--------------------9-7------7------
-10---9---7-9-7---------10-----10-9-
----------------8-------------------

------------------------------
------------------------------
------------------------------
--------------------7-----5---
-10---9---7-9-7-------9-----6-
----------------8-------------

------------------------------------
------------------------------------
------------------------------------
--------------------9-7------7------
-10---9---7-9-7---------10-----10-9-
----------------8-------------------

------------------------------------------------------
------------------------------------------------------
------------------------------------------------------
--------------------7---9-7-9----------9-7-9---10-9-7-
-10---9---10-9-10-------------10-9-7------------------
------------------------------------------------------

Riff 4

x 26
--------------
--------------
--------------
-9-7-9--------
-------10-9-7-
--------------

x 1
----
----
----
-9-
-7-
----

Riff 5

x 4
-------------------------------------------------
-------------------------------------------------
-------------------------------------------------
-12----------------12----11----------11----11----
-10----------------10----9-----------9-----9-----
---0-0-0-0-0-0-0-0---0-0---0-0-0-0-0---0-0---0-0-
 1 + a 2 + a 3 + a 4 + a 1 + a 2 + a 3 + a 4 + a

-------------------------------------------------
-------------------------------------------------
-------------------------------------------------
-8-----------------------5-4---5-4---5-4---5-4---
-6---------------------------3-----3-----3-----5-
---0-0-0-0-0-0-0-0-0-0-0-------------------------
 1 + a 2 + a 3 + a 4 + a 1 + a 2 + a 3 + a 4 + a

Riff 6

x 2
-------------------------------------------------------------
-------------------------------------------------------------
-10-------10-10-9-----9-9-6------6-6-5-4-0-5-4-0-5-4-0-5-4-0-
----0-0-0--------0-0-0-----0-0-0-----------------------------
-------------------------------------------------------------
-------------------------------------------------------------

Riff 7

x 4
-------------------------------------------------
-------------------------------------------------
-------------------------------------------------
-9-----------------7-----9-----------------7-----
-7-----------------5-----7-----------------5-----
---0-0-0-0-0-0-0-0---0-0---0-0-0-0-0-0-0-0---0-0-
 1 + a 2 + a 3 + a 4 + a 1 + a 2 + a 3 + a 4 + a

-------------------------------------------------
-------------------------------------------------
-------------------------------------------------
-9-----------------7-----5-4---5-4---5-4---5-4---
-7-----------------5---------3-----3-----3-----5-
---0-0-0-0-0-0-0-0---0-0-------------------------
 1 + a 2 + a 3 + a 4 + a 1 + a 2 + a 3 + a 4 + a

Riff 8

x 2
--------------------------------------------------------------------
--------------------------------------------------------------------
--------------------------------------------------------------------
-9---------------8---------------10----------------------10/1210---
-7---------------6---------------8-----------------------8-/108----
---0-0-0-0-0-0-0---0-0-0-0-0-0-0---0-0-0-0-0-0-0-0-0-0-0------------
 1 e + a 2 e + a 3 e + a 4 e + a 1 e + a 2 e + a 3 e + a 4  e  +  a

-----------------------------------------------------------------
-----------------------------------------------------------------
-----------------------------------------------------------------
-9---------------8---------------10------------------------------
-7---------------6---------------8-------------------------------
---0-0-0-0-0-0-0---0-0-0-0-0-0-0---0-0-0-0-0-0-0-0-0-0-0-0-0-0-0-
 1 e + a 2 e + a 3 e + a 4 e + a 1 e + a 2 e + a 3 e + a 4 e + a

Riff 9

x 1
----------------------------------------------
----------------------------------------------
---------7----------------------7-------------
-10-9-10-----10-9-7-9---10-9-10-----10-9-7----
-------------------------------------------10-
----------------------------------------------

--------------------------------------------
------------------------------------------8-
---------7----------------------7---9-7-9---
-10-9-10-----10-9-7-9---10-9-10-------------
--------------------------------------------
--------------------------------------------

--------------------------------------------
--------------------------------------------
---------7--------------9-7-9-10---9-7----7-
-10-9-10-----10-9-7-9------------------10---
--------------------------------------------
--------------------------------------------

--------------------------------------------
-----------------------------------8--------
---------7----------7---9-7-9-10----10-9-10-
-10-9-10-----7-9-10-------------------------
--------------------------------------------
--------------------------------------------

Riff 10

x 1
------------------------------------------------------------------
-----------------------------------------------------7--------10v-
-7v---7-9-10-7-9-10-7-9-10-7-9-10-10---9---10p9-10-----10-9-------
------------------------------------------------------------------
------------------------------------------------------------------
------------------------------------------------------------------

Riff 11

x 1
----------------------------------------------------------------------
----------------------------------------------------------------------
----------------------------------------101010999101010---------------
-000000--222--3333--5-333-222-0000------------------------------------
-----------------------------------111-------------------111-000-333--
----------------------------------------------------------------------

Riff 12

x 1
----------------------------------------------
----------------------------------------------
----------------------------5--5^--7--7^--9---
-5-4-2----------------1-----5------7------9---
-------2-3-2-0----------2---3------5------7---
----------------3-2-0-------------------------

Comentarios del colaborador: solo para goticos aaaaaaaaaa

Calificar esta versión:
Aviso: Este fichero es trabajo propio de su transcriptor y representa su interpretación personal de la canción. El material contenido en esta página es para exclusivo uso privado, por lo que se prohibe su reproducción o retransmisión, así como su uso para fines comerciales.