Babylon Ad, Cradle Of Filth (tablatura)

Autor: alejandrocoria | 27119 visualizaciones

intro 
C|--4----3----4-3----0--1------4----3----4-3----6-6--| 
G|--4----3----4-3----0--1------4----3----4-3----6-6--| 
C|--4----3----4-3----0--1------4----3----4-3----6-6--| 
 
riff 2 
C|--10-10--|------|--9-10--7-9---9/8--|------|--5-4-5-4-7-7-5-5--| 
G|--10-10--|--1x--|--9-10--7-9---9/8--|--3x--|--5-4-5-4-7-7-5-5--| 
C|--10-10--|------|--9-10--7-9--------|------|--5-4-5-4-7-7-5-5--| 

riff 3 
C|------------9/8--|------|--5-4-5-4-7-7-5-5--| 
G|------------9/8--|--3x--|--5-4-5-4-7-7-5-5--| 
C|--9-10-7-9-------|------|--5-4-5-4-7-7-5-5--| 

 
riff 4 
A|----------------------------------------------------------| 
F|--10p7-7-7-7---7h9-7h10--10p7-7-7-7---10p7-7--10-12-10-9--| 
C|----------------------------------------------------------| 
G|----------------------------------------------------------| 
riff 4 (cont.) 
A|----------------------------------------------------------| 
F|--10p7-7-7-7---7h9-7h10--10p7-7-7-7---10-9-7-9-7-6-7-6----| 
C|----------------------------------------------------------| 
G|----------------------------------------------------------| 
 

riff del temaaa 
cualquier consulta en 
alejandrocoria_24@live.com.ar
Calificar esta versión:
Aviso: Este fichero es trabajo propio de su transcriptor y representa su interpretación personal de la canción. El material contenido en esta página es para exclusivo uso privado, por lo que se prohibe su reproducción o retransmisión, así como su uso para fines comerciales.