Mi Espacio, Coti (tablatura)

Autor: Anónimo | 41456 visualizaciones



G C x4

G                *1
Estás buscándome,
                       C *2
estás buscándome otra vez.

G                 *3
Estás siguiéndome
                        C *2
estás siguiéndome otra vez.

D                        C
Nadie nace sabiendo olvidar
                          D
salvo que me quieras enseñar,
                      C    Bm   C    Bm   C    Bm
sigues ocupando casi todo todo todo casi todo

      G
mi espacio...
C                     G
sigues ocupando mi espacio...
C                         Em
sé que el tiempo labra despacio...
     D              C  *4
la tierra de la verdad

G C x2

G                *1
Estás buscándome,
                       C  *2
estás buscándome otra vez.

G                  *2
Vas persiguiéndome,
                         C  *2
estás molestándome otra vez.

D                        C
Nadie nace sabiendo olvidar
                          D
salvo que me quieras enseñar,
                      C    Bm   C    Bm   C    Bm
sigues ocupando casi todo todo todo casi todo

      G
mi espacio...
C                     G
sigues ocupando mi espacio...
C                         Em
sé que el tiempo labra despacio...
     D              C
la tierra de la verdad
      G
mi espacio...
C                     G
sigues ocupando mi espacio...
C                         Em
sé que el tiempo labra despacio...
     D              C  *4
la tierra de la verdad

Solo guitarra: G C G C Em D C

G         C
G         C
G         C
Estás buscándome.
G         C       G
Estás buscándome.

-------------------------------
Un par de arreglos:

*1
e---------------------
B---------------------
G------------(0)------
D--------0-2----------
A----0h2--------------
E--3------------------

*2
e--2-0-2-3-(3)---10s12-10-------------------
B-------------------------12s10-8s5-(8)-----
G-------------------------------------------
D-------------------------------------------
A-------------------------------------------
E-------------------------------------------

*3
e----------------
B----------------
G----------------
D----------(0)---
A----0-0h2-------
E--3-------------

*4
e--------------------------------------------------
B-----1-------1-------1-------1-------1------------
G--------------------------------------------------
D-0h2----0h2-----0h2-----0h2-----0h2-----0h2-------
A--------------------------------------------------
E--------------------------------------------------

Comentarios, sugerencias, etc al mail..





Calificar esta versión:
Aviso: Este fichero es trabajo propio de su transcriptor y representa su interpretación personal de la canción. El material contenido en esta página es para exclusivo uso privado, por lo que se prohibe su reproducción o retransmisión, así como su uso para fines comerciales.