Parachutes, Coldplay (tablatura)

Autor: coldplayer | 21117 visualizaciones

B       Abm         B       Abm         F#m
E|-|-------------------|-------------------|------------------|-|
B|-|-------------------|-------------------|------------------|-|
G|-|----8--8----4--4---|----8--8----4--4---|---2---2---2---2--|-|
D|-|-----9--9----6--6--|-----9--9----6--6--|----4-------4-----|-|
A|-|------9-------6----|------9-------6----|-----4-------4----|-|
e|-|--7-------4--------|--7-------4--------|--2-------2-------|-|

      E
E|-|------------------|-|
B|-|------------------|-|
G|-|---1--1----1---1--|-|
D|-|----2--2----2-----|-|
A|-|-----2-------2----|-|
e|-|--0-------0-------|-|

Comentarios del colaborador: facil :D

Calificar esta versión:
Aviso: Este fichero es trabajo propio de su transcriptor y representa su interpretación personal de la canción. El material contenido en esta página es para exclusivo uso privado, por lo que se prohibe su reproducción o retransmisión, así como su uso para fines comerciales.