Lovers In Japan, Coldplay (tablatura)

Autor: John-lennon-beatle | 41579 visualizaciones

LOVERS IN JAPAN                        


               e|---7---7---10---7-------------------------|
               B|--------------------10---7---10---7---5---| 
               G|------------------------------------------|
               D|------------------------------------------| 
               A|------------------------------------------| 
               E|------------------------------------------|     


               e|------------------------------------------|
               B|----5/7-----------------------------------| 
               G|------------------------------------------|
               D|------------------------------------------| 
               A|------------------------------------------| 
               E|------------------------------------------|     

                               
               e|---7---7---10---7-------------------------|
               B|--------------------10---7---10---7---5---| 
               G|------------------------------------------|
               D|------------------------------------------| 
               A|------------------------------------------| 
               E|------------------------------------------|


               e|------------------------------------------|
               B|----5/7-----3-----------------------------| 
               G|------------------------------------------|
               D|------------------------------------------| 
               A|------------------------------------------| 
               E|------------------------------------------|

Comentarios del colaborador: Esta Cancion La saque a puro oido xd

Calificar esta versión:
Aviso: Este fichero es trabajo propio de su transcriptor y representa su interpretación personal de la canción. El material contenido en esta página es para exclusivo uso privado, por lo que se prohibe su reproducción o retransmisión, así como su uso para fines comerciales.