Life In Technicolor Ii, Coldplay (tablatura)

Autor: Juanjo_Pont | 24736 visualizaciones

1|----------0-----------2-2-0----
2|---0---2----------0------------
3|-2---2--------2-2---2----------
4|-------------------------------
5|-------------------------------
6|-------------------------------


1|----------0-----------4-4-0----
2|---0---2----------0------------
3|-2---2--------2-2---2----------
4|-------------------------------
5|-------------------------------
6|-------------------------------

x 10


Fam,Re,La(haci es toda la cancion)
There's a wild wind blowing,
Down the corner of my street
Every night there the headlights are glowing

Theres a cold war coming,
On the readio I heard
Baby it's a violent world

Oh love don't let me go
Won't you take me where the streetlights glow
I could hear it coming
I could hear the sirens sound
Now my feet won't touch the ground

Time came a-creepin'
Oh and time's a loaded gun
Every road is a ray of light
It goes o-o-on
Time only can lead you on
Still it's such a beautiful night

Oh love don't let me go
Won't you take me where the streetlights glow
I could hear it coming
Like a serenade of sound
Now my feet won't touch the ground

Gravity release me,
And dont ever hold me down
Now my feet won't touch the ground

1|-----------9-----------------9-9---
2|--10-12-10----10-12-10-12-10-----10
3|-----------------------------------
4|-----------------------------------
5|-----------------------------------
6|-----------------------------------
(la guitarra electrica hace eso todo el tiempo cundo comienza a cantar)

opinen
Calificar esta versión:
Aviso: Este fichero es trabajo propio de su transcriptor y representa su interpretación personal de la canción. El material contenido en esta página es para exclusivo uso privado, por lo que se prohibe su reproducción o retransmisión, así como su uso para fines comerciales.