Cemeteries Of London, Coldplay (acordes)

Autor: rocko95 | 38602 visualizaciones

amcd5dmf
D5
At night they would go walking till the...
------------------------------------------------|
--------------------------------3---------------|
--------------------------------2---------------|
------------------------------------------------|
------------------------------------------------|
------------------------------------------------|
                         D5
The morning is for sleeping
--------------------------------|
-------------------------3------|
-------------------------2------|
--------------------------------|
--------------------------------|
--------------------------------|
                                                D5
Through the dark streets they go searching to see God in their own way
-----------------------------------------------------------------|
-------------------------------------------------3---------------|
-------------------------------------------------2---------------|
-----------------------------------------------------------------|
-----------------------------------------------------------------|
-----------------------------------------------------------------|
                                  D5
Save the nighttime for you weeping             Your Weeping
------------------------------------------------|
----------------------------------3-------------|
----------------------------------2-------------|
------------------------------------------------|
------------------------------------------------|
------------------------------------------------|


        F         C         Dm
Singing la la la la la la lay
        F          Am         Dm
And the night over London hey

      Dm               F               C              Dm
So we rode down to the river where the toiling ghosts spring
          Dm           C       Am
For their curses to be broken
         Dm             F                C                  Dm
We'll go underneath the arches where the witches are in the sea
          Dm                 F      Am
There are ghost towns in the ocean
    Dm
The ocean


        F        C          Dm
Singing la la la la la la lay
        F          Am          Dm
And the night over London rain


Solo:[relative to capo]
-10-----8-7-------7b----------|--10----8-7-------7b--------12--------|
---------------8------8-------|---------------8----------------------|
-------------------------9----|--------------------------------------|
------------------------------|--------------------------------------|
------------------------------|--------------------------------------|
------------------------------|--------------------------------------|

-10--8-7-5-|     -12---8-7-5--|      -10---8-7-5-|
-----------|     -------------|      ------------|
-----------|x6   -------------|x2    ------------| x2
-----------|     -------------|      ------------|
-----------|     -------------|      ------------|
-----------|     -------------|      ------------|


Dm         F           Am           Dm
God in the houses, and god is in my head
            Dm            F        Am
And all the cemeteries in London
      Dm             F             Am                     Dm
I see god come in my garden, but I don't know what he'd say
       Dm              F     Am
For my heart it wasn't open
    Dm
Not open


      F        C          Dm
Singing la la la la la la lay
        F          Am        Dm
And the night over London hey
        F        C          Dm
Singing la la la la la la lay
           F          Am         Dm
There's no light over London today
Calificar esta versión:
Aviso: Este fichero es trabajo propio de su transcriptor y representa su interpretación personal de la canción. El material contenido en esta página es para exclusivo uso privado, por lo que se prohibe su reproducción o retransmisión, así como su uso para fines comerciales.