Sin Ti, Colchon (tablatura)

Autor: VicPunk | 30117 visualizaciones



esta cancion esta bien chida y va asi:
intro
e|-----------------|----------------|----------------|
b|-----------------|----------------|----------------|
G|-----------------|----------------|----------------|
D|---3-3-2-2--(x2)-|---3-3-2-2-(x2)-|---3-3-2-2-(x2)-|
A|3-3--------------|----------------|3-3-------------|
E|-----------------|3-3-------------|----------------|

(aki la guitara se queda sonando en)
C
Hace tiempo que te ví

tu sonrisa sin igual

no la puedo olvidar.

(aqui usen palm mute entre nota y nota)

C5                G5
Llevo dentro de mi
                  A5
tu forma de sonreir
            F5
me hace pensar
(aqui va el intro solo una vez)

C5                      G5
Se me va el día en imaginar
               A5         F5
tomarte de la mano, caminar.

C5                G5
Por un rumbo avanzar,
                 A5                     F5
sin siquiera pensar en lo que podría pasar.


C5          G5                A5       F5
Hay algo en mí que grita por tí,
C5          G5                A5      F5
despierta y ve que estoy aquí,
        C5
sin tí.

solo
e|---------|---------|---------|
b|---------|---------|---------|
G|-----5---|---------|---------|
D|---5---5-|-----5---|-----7---|
A|-3-------|---5---5-|---7---7-|
E|---------|-3-------|-5-------|

C5           G5               A5     F5
Hay algo en mí que grita por tí,
C5           G5              A5    F5
despierta y ve que estoy aquí,
       C5
sin tí.

  C5          G5               A5     F5
Hay algo en mí que grita por tí,[aqui se toca el intro]
   C5         G5            A5        F5
despierta y ve que estoy aquí,
    C5
sin tí





Calificar esta versión:
Aviso: Este fichero es trabajo propio de su transcriptor y representa su interpretación personal de la canción. El material contenido en esta página es para exclusivo uso privado, por lo que se prohibe su reproducción o retransmisión, así como su uso para fines comerciales.