Loco, Coal Chamber (tablatura)

Autor: david_pxndx | 21765 visualizaciones



LOCO BY: COAL CHAMBER
TAB  BY: BRIAN REILLY

e-------------------
b--0-0-0-0-0-0-0-0--
g--3-3-3-3-3-3-3-3--
d--(----------------
a-------------------
e-------------------
B-------------------
Hold bend                    
                              alternate riffs
Then play with out bend      /



e---------                 e-----------------------------
b---------                 b-----------------------------
g---------                 g-----------------------------
d---------                 d-----------------------------
a--2------                 a-----------------------------
e--2------                 e---4---4---4---4-5-4---------
B--0------                 B-0-2-0-2-0-2-0-2-3-2---------
Let cord ring           /   p.m-------------
               Alternate  4x
                          e-----------------------------
                           b-----------------------------
                           g-----------------------------
                           d-----------------------------
                           a-----------------------------
                           e---4---4---4---4-7-5---------
                           B-0-2-0-2-0-2-0-2-5-3---------
                           p.m-------------


(choirs)
e-------------------------------------------------------------
b-------------------------------------------------------------
g-------------------------------------------------------------
d-------------------------------------------------------------
a-------------------------------------------------------------
e-4-4---4-4-4-4---4-4-4-4---4-4-4-4---4-4-3-3---3-3-3-3-------
B-2-2---2-2-2-2---2-2-2-2---2-2-2-2---2-2-1-1---1-1-1-1-------
  LOCO      LOCO      LOCO      LOCO      LOCO      LOCO





e-------------------------------------------------------------
b-------------------------------------------------------------
g-------------------------------------------------------------
d-------------------------------------------------------------
a-------------------------------------------------------------
e-3-3-3-3---3-3-3-3---3-3-2-----------------------------------
B-1-1-1-1---1-1-1-1---1-1-0-----------------------------------
(Bridge)
e-----------------
b-----------------
g-----------------
d-----------------
a-----------------
e---5-4---4---4---
B-0-3-2-0-2-0-2---
p.m----------


(THE WORDS)

PULL - STEAMROLLER ROLLIN' THROUGH
MY HEAD SAID ATTACHED TO LOCO
POWER UP COAL THROUGH THE SYSTEM
OUT TO THE RIGHT SAID YOUR IN MY
LIGHT - LOCK DOWN THE GENERATOR ON
MAN SCREW DOWN USE  THE SYSTEM
USE THE MAIN PLAN FULL POWER UP TO
THE POINT MAN DON'T FUCK WITH ME

LOCO

LOCK DOWN HERE LATCH THE GENERATOR
ON SCREW TH SYSTEM FULL POWER HIT
THE MAIN PLAN





Calificar esta versión:
Aviso: Este fichero es trabajo propio de su transcriptor y representa su interpretación personal de la canción. El material contenido en esta página es para exclusivo uso privado, por lo que se prohibe su reproducción o retransmisión, así como su uso para fines comerciales.