Jesus Amado De Mi Alma, Claudio Freidzon (acordes)

Autor: Anónimo | 22498 visualizaciones

ambbcddmeebemfg


Intro


F  Bb  C  Bb x2

    F      C/Am
Jesus amado de mi alma
    Dm    Bb       C
jesus jamas te dejare
    F      C/Am
me sacaste en la oscuridad
       Bb                 C
me trajiste libertad y ahora se

         F      C       Dm     Eb
Que te amo te necesito mi preciosos Dios
   Bb         C      F        C                
jamas te dejare mi salvador mi mejor amigo
 Dm     Eb      Bb        C
yo te adorare por la eternidad




sube 1 tono

G   D/Bm    Em    F   C

solo de guitarra acustica

E---------------------------------------------------
B---------------------------------------------------
G---------------------------------------------------
D------------------------------5-4-2-4-5-7-------5/7
A---5---4-5-7------------------5-5-5-5-5-7---5/7----
E--------------5-2----5/7-5-------------------------



E---------------------------------------2/2/3---------
B-----------------------------7----5/3--------5/3-----
G--4-----------------4-----------------------------4/2
D----5---------5/7-----5/7------3---------------------
A-------7--5/7 -------------5-------------------------
E

estos son las notas del requinto

G D C D Am Em  F C D G





Calificar esta versión:
Aviso: Este fichero es trabajo propio de su transcriptor y representa su interpretación personal de la canción. El material contenido en esta página es para exclusivo uso privado, por lo que se prohibe su reproducción o retransmisión, así como su uso para fines comerciales.