96 Quite Bitter Beings, Cky (tablatura)

Autor: moya_06 | 35255 visualizaciones



intro
eb--------------------------------------------------|
Bb--------------------------------------------------|
gb--------------------------------------------------|
db------9----------9-10-9-------------12-10-9-7--9--| (x4)
ab--7-10--7---7-10-------10-9-10---10----------10-10|
eb--------0-----------------------8-----------------|


verse
eb--------------------------------------------------|
Bb--------------------------------------------------|
gb---------6-6-6------------------------------------|
db-2-2-2---6-6-6------------------------------------|  (x6)
ab-2-2-2---4-4-4------------------------------------|
eb-0-0-0-0------------------------------------------|



chorus
eb--------------------------------------------------|
Bb--------------------------------------------------|
gb--------------------------------------------------|
db------9----------9-10-9-------------12-10-9-7--9--| (x4)
ab--7-10--7---7-10-------10-9-10---10----------10-10|
eb--------0-----------------------8-----------------|



verse2
eb--------------------------------------------------|
Bb--------------------------------------------------|
gb---------6-6-6------------------------------------|
db-2-2-2---6-6-6------------------------------------|  (x6)
ab-2-2-2---4-4-4------------------------------------|
eb-0-0-0-0------------------------------------------|



bridge
eb-0-0-0-0-0-0-0-0
Bb-0-0-0-0-0-0-0-0
gb-9-9-9-9-7-7-7-7
db-9-9-9-9-7-7-7-7  <~ this part
ab-7-7-7-7-5-5-5-5     sounds pretty
eb-0-0-0-0-0-0-0-0     jacked up but
                       its right

and then do this again
eb--------------------------------------------------|
Bb--------------------------------------------------|
gb---------6-6-6------------------------------------|
db-2-2-2---6-6-6------------------------------------|
ab-2-2-2---4-4-4------------------------------------|
eb-0-0-0-0------------------------------------------|



then this again
eb-0-0-0-0-0-0-0-0
Bb-0-0-0-0-0-0-0-0
gb-9-9-9-9-7-7-7-7
db-9-9-9-9-7-7-7-7
ab-7-7-7-7-5-5-5-5
eb-0-0-0-0-0-0-0-0


then this
eb--------------------------------------------------|
Bb--------------------------------------------------|
gb---------6-6-6------------------------------------|
db-2-2-2---6-6-6------------------------------------|
ab-2-2-2---4-4-4------------------------------------|
eb-0-0-0-0------------------------------------------|


and end with this
eb--------------------------------------------------|
Bb--------------------------------------------------|
gb--------------------------------------------------|
db------9----------9-10-9-------------12-10-9-7--9--|
ab--7-10--7---7-10-------10-9-10---10----------10-10|
eb--------0-----------------------8-----------------|





Calificar esta versión:
Aviso: Este fichero es trabajo propio de su transcriptor y representa su interpretación personal de la canción. El material contenido en esta página es para exclusivo uso privado, por lo que se prohibe su reproducción o retransmisión, así como su uso para fines comerciales.