Me Mentiste, Chris Syler (acordes)

Autor: Uribe10 | 21981 visualizaciones

a5bcsosmefsosm


 Intro: A5 - E - F#m - A5

  A5                                E
Quiza pongas cara sincera pero te conosco ya lo suficente
       A5                                  E
ya me canse de buscar la manera de que me hables con
                  A5          E
sinceridad,mirame bien en tu memoria guarda esta fotografia
             A5          E                                     F#m    A5
por que mi amor se me escapo ese sentimiento que tenia se me escapo

       A5                                     E
Tu descubriste la fuerza de una mentira y planeaste bien en que
               A5                              E
decirme y decidiste tomar el camino facil concluyendo todo

con mentirme

           A5                  E
El dicho dice te mienten una ves y te vuelven a mentir
     A5              E
perdoname pero tu tiempo se acabo y te tienes que ir
              F#m            A5
te tienes que ir


[coro]
              A5                 E
Guarda tus palabras no quiero escuchar puedes comenzar
      C#m                          B
a empacar para que te vayas y que solo queden memorias
               A5                 E
y ahorrate mentiras sueltame mi amor veo tu dolor pero
     C#m                  B                          A5     E   F#m  A5
aceptalo ya mi vida me mentiste y me perdiste por siempre

         A5                                E
Y tu lo sabes no te olvidare por que tu fuiste lo mejor en mi,
            A5                              E
si quieres verme solo llamame yo sere solo tu amigo
            A5                     E
nunca me perderas y te mereces el perdon de mi persona,
          A5         E
pero mi amor hay diferentes formas en que uno
               F#m           A5
perdona, no volvere, no volvere.

[coro]
              A5                 E
Guarda tus palabras no quiero escuchar puedes comenzar
      C#m                          B
a empacar para que te vayas y que solo queden memorias
               A5                 E
y ahorrate mentiras sueltame mi amor veo tu dolor pero
     C#m                  B                         C#m  B  A5 B C#m B
aceptalo ya mi vida me mentiste y me perdiste por siempre

[Solo]

e----------------------------------------------------------|
B----------------------------------------------------------|
G----------------------------------------------------------|
D-----4-4/6-4------4-4/6-4-2-4-2-----4-4/6-6-6/7-7-7/9-----|
A—4-7----------4-7---------------4-7-----------------------|
E----------------------------------------------------------|

e---------------------------------|
B-2-4-5-4-2-4-5-4-2-4-5-5/9-7-5---|
G---------------------------------|
D---------------------------------|
A—--------------------------------|
E—--------------------------------|


[Coro]

e---7-----7----7-|----7------7------7-|---7-----7-----7--|
B-----7----7-----|------7------7------|-----7-----7------|
G-9-----9----9---|-11-----11-----11---|-9-----9-----9----|
D----------------|--------------------|------------------|
A—---------------|--------------------|------------------|
E----------------|--------------------|------------------|


e---7-----7-----7--|
B-----7-----7------|
G-8-----8-----8----|
D------------------|
A—-----------------|
E—-----------------|

              A5                 E
Guarda tus palabras no quiero escuchar puedes comenzar
      C#m                          B
a empacar para que te vayas y que solo queden memorias
               A5                 E
y ahorrate mentiras sueltame mi amor veo tu dolor pero
     C#m                  B                          C#m   B  A5 B  E
aceptalo ya mi vida me mentiste y me perdiste por siempre...

El Acorde A5 es:
    e|---|---|---|
    B|---|---|---|
    G|---|-2-|---|
    D|---|-2-|---|
    A|---|---|---|
    E|---|---|---|

 





Comentarios del colaborador: DiiA 4E

Calificar esta versión:
Aviso: Este fichero es trabajo propio de su transcriptor y representa su interpretación personal de la canción. El material contenido en esta página es para exclusivo uso privado, por lo que se prohibe su reproducción o retransmisión, así como su uso para fines comerciales.