Baby You Wouldnt Last A Minute On The Creek ( Acoustic ), Chiodos (tablatura)

Autor: daniell70 | 30831 visualizaciones

Part 1 - No distortion

e--------------------------------------------------------------------------|
B------10---8---6---5---6---8---6--------6---6----------5---5--------5-----|
G----7----7---7---7---7---7---7---7----7---7---7-----7----7-------7-----7--|
D--0--------------------------------8-------------7------------7-----------|
A--------------------------------------------------------------------------|
D--------------------------------------------------------------------------|

e----------------------------------------------------------------8---------|
B------10---8---6---5---6---8---6--------6---6----------5---5--------------|
G----7----7---7---7---7---7---7---7----7---7---7-----7----7---7------------|
D--0--------------------------------8-------------7------------------------|
A--------------------------------------------------------------------------|
D--------------------------------------------------------------------------|

Repeat Once


Next Part w/ Heavy Distortion

e-------------------------------------------------------------------------|
B-------------------------------------------------------------------------|
G-------------------------------------------------------------------------|
D---7--7--7--7----9--9--9--9----10-10-10-10----10-10-10-10----9--9--9--9--|
A---5--5--5--5----7--7--7--7----8--8--8--8-----8--8--8--8-----7--7--7--7--|
D-------------------------------------------------------------------------|

e-------------------------------------------------------------------------|
B-------------------------------------------------------------------------|
G-------------------------------------------10--10--10--10----------------|
D---7--7--7--7---9--9--9--9---10-10-10-10---8---8---8---8--12--12--12--12-|
A---5--5--5--5---7--7--7--7---8--8--8--8-------------------10--10--10--10-|
D-------------------------------------------------------------------------|

Repeat Once


Tempo is slowed for next part
                                                                 ~
e------------------------------------------------------------------|
B------------------------------------------------------------------|
G------------------------------------------------------------------|
D---7--7--7--7--0--0--0--0--7--7--7--7--0--0--0--0-----------------|
A---5--5--5--5--0--0--0--0--5--5--5--5--0--0--0--0----1 slide to 8-|
D---------------0--0--0--0--------------0--0--0--0-----------------|
               pm.........            pm...........

                                                                 ~
e------------------------------------------------------------------|
B------------------------------------------------------------------|
G------------------------------------------------------------------|
D---7--7--7--7--0--0--0--0--7--7--7--7--0--0--0--0-----------------|
A---5--5--5--5--0--0--0--0--5--5--5--5--0--0--0--0----1 slide to 3-|
D---------------0--0--0--0--------------0--0--0--0-----------------|
               pm.........            pm...........

Repeat Once


This next part is reaaaaally hard to figure out what they're playing
but this is what i came up with (Note: this is not correct, but is close)

e-------------------------------------------------------------------|
B-------------------------------------------------------------------|
G-------------------------------------------------------------------|
D--7--7--7--5--5--5----3--3--3---3--3--3---0--0--0--0---8--8--8--8--|
A--5--5--5--3--3--3----1--1--1---1--1--1---0--0--0--0---8--8--8--8--|
D------------------------------------------0--0--0--0---8--8--8--8--|

e----------------------------|
B----------------------------|
G----------------------------|
D---2--2---3--3--3---5--5--5-|
A---0--0---1--1--1---3--3--3-|
D----------------------------|

I'm sorry it's so wrong guys!!


Repeat Once


e----------------------------------------------------------------------|
B----------------------------------------------------------------------|
G----------------------------------------------------------------------|
D---7--7---7--7--7---7--7---7--7--7---5--5---5--5--5---5--5---5--5--5--|
A---5--5---5--5--5---5--5---5--5--5---3--3---3--3--3---3--3---3--3--3--|
D----------------------------------------------------------------------|

e----------------------------------------------------------------------|
B----------------------------------------------------------------------|
G----------------------------------------------------------------------|
D---2--2---2--2--2---2--2---2--2--2---3--3---3--3--3---3--3---3--3--3--|
A---0--0---0--0--0---0--0---0--0--0---1--1---1--1--1---1--1---1--1--1--|
D----------------------------------------------------------------------|

Repeat Once


e-------------------------------------------------------------------|
B-------------------------------------------------------------------|
G-------------------------------------------------------------------|
D--7--7--7--5--5--5----3--3--3---3--3--3---0--0--0--0---8--8--8--8--|
A--5--5--5--3--3--3----1--1--1---1--1--1---0--0--0--0---8--8--8--8--|
D------------------------------------------0--0--0--0---8--8--8--8--|

e----------------------------|
B----------------------------|
G----------------------------|
D---2--2---3--3--3---5--5--5-|
A---0--0---1--1--1---3--3--3-|
D----------------------------|

Repeat Once


e------------------------------------------------------------------|
B------------------------------------------------------------------|
G------------------------------------------------------------------|
D---7--7--7--7--0--0--0--0--7--7--7--7--0--0--0--0-----------------|
A---5--5--5--5--0--0--0--0--5--5--5--5--0--0--0--0----1 slide to 8-|
D---------------0--0--0--0--------------0--0--0--0-----------------|
               pm.........            pm...........

                                                                 ~
e------------------------------------------------------------------|
B------------------------------------------------------------------|
G------------------------------------------------------------------|
D---7--7--7--7--0--0--0--0--7--7--7--7--0--0--0--0-----------------|
A---5--5--5--5--0--0--0--0--5--5--5--5--0--0--0--0----1 slide to 3-|
D---------------0--0--0--0--------------0--0--0--0-----------------|
               pm.........            pm...........


Repeat Once

This is just like the soft part in the beginning w/ no distortion

e--------------------------------------------------------------------------|
B------10---8---6---5---6---8---6--------6---6----------5---5--------5-----|
G----7----7---7---7---7---7---7---7----7---7---7-----7----7-------7-----7--|
D--0--------------------------------8-------------7------------7-----------|
A--------------------------------------------------------------------------|
D--------------------------------------------------------------------------|

e----------------------------------------------------------------8---------|
B------10---8---6---5---6---8---6--------6---6----------5---5--------------|
G----7----7---7---7---7---7---7---7----7---7---7-----7----7---7------------|
D--0--------------------------------8-------------7------------------------|
A--------------------------------------------------------------------------|
D--------------------------------------------------------------------------|


Repeat Once


This next part is like a little breakdown, it sounds cool

e-------------------------------------------------------|
B-------------------------------------------------------|
G-------------------------------------------------------|
D---0--0--0--0------------------------------------------|
A---0--0--0--0---8--8--8--8---7--7--7---10--10--10--10--|
D---0--0--0--0------------------------------------------|
  pm..........

e-------------------------------------------------------|
B-------------------------------------------------------|
G-------------------------------------------------------|
D---0--0--0--0------------------------------------------|
A---0--0--0--0---12--12--12--12---10--8--10--8--7-------|
D---0--0--0--0------------------------------------------|
  pm..........


Repeat 3 Times


This is another breakdown-type riff, and it's fast and hard

e------------------------------------------|
B------------------------------------------|
G------------------------------------------|
D--0--0--0--0------------------------------|
A--0--0--0--0----8--5--7--10--8--7--3--5---|
D--0--0--0--0------------------------------|
 pm..........

e------------------------------------------|
B------------------------------------------|
G------------------------------------------|
D--0--0--0--0------------------------------|
A--0--0--0--0----8--5--7--8--12--10--8--7--|
D--0--0--0--0------------------------------|
 pm..........

Repeat Once

e------------------------------------------|
B------------------------------------------|
G------------------------------------------|
D--0--0--0--0------------------------------|
A--0--0--0--0----13--12--10--8--7--8--7--4-|
D--0--0--0--0------------------------------|
 pm..........                   ~  ~  ~  ~


e----------------------------------------------------------------------|
B----------------------------------------------------------------------|
G----------------------------------------------------------------------|
D---7--7---7--7--7---7--7---7--7--7---5--5---5--5--5---5--5---5--5--5--|
A---5--5---5--5--5---5--5---5--5--5---3--3---3--3--3---3--3---3--3--3--|
D----------------------------------------------------------------------|

e----------------------------------------------------------------------|
B----------------------------------------------------------------------|
G----------------------------------------------------------------------|
D---2--2---2--2--2---2--2---2--2--2---3--3---3--3--3---3--3---3--3--3--|
A---0--0---0--0--0---0--0---0--0--0---1--1---1--1--1---1--1---1--1--1--|
D----------------------------------------------------------------------|

Repeat Once

e------------------------------------------------------------------|
B------------------------------------------------------------------|
G------------------------------------------------------------------|
D---7--7--7--7--0--0--0--0--7--7--7--7--0--0--0--0-----------------|
A---5--5--5--5--0--0--0--0--5--5--5--5--0--0--0--0----1 slide to 8-|
D---------------0--0--0--0--------------0--0--0--0-----------------|
               pm.........            pm...........

                                                                 ~
e------------------------------------------------------------------|
B------------------------------------------------------------------|
G------------------------------------------------------------------|
D---7--7--7--7--0--0--0--0--7--7--7--7--0--0--0--0-----------------|
A---5--5--5--5--0--0--0--0--5--5--5--5--0--0--0--0----1 slide to 3-|
D---------------0--0--0--0--------------0--0--0--0-----------------|
               pm.........            pm...........

Repeat Once


Outro is simply

e--------------|
B--------------|
G--------------|
D---0--0--0--0-|
A---0--0--0--0-|
D---0--0--0--0-|
Calificar esta versión:
Aviso: Este fichero es trabajo propio de su transcriptor y representa su interpretación personal de la canción. El material contenido en esta página es para exclusivo uso privado, por lo que se prohibe su reproducción o retransmisión, así como su uso para fines comerciales.