The Red, Chevelle (tablatura)

Autor: alvaretto | 32298 visualizaciones



Intérprete: Chevelle
Álbum: Wonder What's Next
Canción: The Red

Afinación: eBGDAE 
Guitarrista: Pete Loeffler

INTRO/VERSO
|---------------------------------------------|
|---------------------------------------------|
|---------------------------------------------| varias
|------------5--5-5-5-5------------9--9-9-9-9-| veces
|-7--7-9-7-9-5--5-5-5-5-7--7-9-7-9-9--9-9-9-9-|
|-0--0-0-0-0-3--3-0-3-0-0--0-0-0-0-7--7-7-7-7-|

CORO
|------------------------------------|
|------------------------------------|
|------------------------------------|
|-2--2-2-2-2-2--2-2-2-2-2--3-3-3-3-3-|
|-2--2-2-2-2-2--2-2-2-2-2--3-3-3-3-3-|
|-0--0-0-0-0-0--1-1-1-1-1--1-1-1-1-1-|

|--------------------------------|
|--------------------------------|
|-4--4-4-4-4-4--4-4-4-4-4--4-4-4-|
|-4--4-4-4-4-4--4-4-4-4-4--4-4-4-|
|-2--2-2-2-2-2--2-2-2-2-2--2-2-2-|
|--------------------------------|

(lo anterior se hace dos veces, excepto
las tres ultimas notas)

|----------------|
|----------------|
|----------------|
|-4/6-6-6--6-6-6-|
|-4/6-6-6--6-6-6-|
|-2/4-4-4--4-4-4-|

SOLO

|-----------------------------------------------------------|
|-----------------------------------------------------------|
|-13-13-13-13-13-13-13-13-13-13-6-6-6/8-8-8-8-8-8-8-8-8-8-8-| x2
|-x--x--x--x--x--x--x--x--x--x--x-x-x/x-x-x-x-x-x-x-x-x-x-x-|
|-11-11-11-11-11-11-11-11-11-11-4-4-4/6-6-6-6-6-6-6-6-6-6-6-|
|-----------------------------------------------------------|

|-----|
|-----| la parte final donde cantan "seenig red again!"
|-----| se toca igual que el verso, y el acompañamiento
|-9.--| del solo es el mismo de el verso.
|-9.--|
|-7.--|

ORDEN:
intro
verso 1
coro
verso 2
coro
solo
coro (x2)
final
verso 1

LYRICS:
-Verso 1-
They say freak
When you're singled out
The red, well it filters through

-Coro-
So lay down, the threat is real
When his sight goes red again
Seeing red again
Seeing red again

-Verso 2-
This change, he won't contain
Slip away, to clear your mind
When asked, who made it show
The truth, he gives in to most

-Coro-
So lay down, the threat is real
When his sight goes red again

-Solo-

-Coro (x2)
So lay down, the threat is real
When his sight goes red again
So lay down, the threat is real
When his sight goes red again

-Final-
Seeing red again
Seeing red again
Seeing red again
Seeing red again
Seeing red again
Seeing red again
Seeing red again
Seeing red....

-Verso 1-
The say freak
When you're singled out
The red, it filters through





Calificar esta versión:
Aviso: Este fichero es trabajo propio de su transcriptor y representa su interpretación personal de la canción. El material contenido en esta página es para exclusivo uso privado, por lo que se prohibe su reproducción o retransmisión, así como su uso para fines comerciales.