Mi Novia, Chabelos (acordes)

Autor: cyberflish98 | 23616 visualizaciones

dofalamsol
 Bueno aca les dejo la tablatura de una cancion bien paja
de los chabelos!!!

[-----------------------------------------------------------
[------1-3—3/5-3/5-3/5—3-1-3---1—-1-3------1-3-3/5-5-3-1-3--
[----2--------------------------------2--2------------------
[-----------------------------------------------------------
[-----------------------------------------------------------
[-----------------------------------------------------------

[---------------------------------------------------
[----1-3-3/5-5-3-1-3-1-----1-3-3/5-5-5555-1-33333---
[--2---------------------2--------------------------
[---------------------------------------------------
[---------------------------------------------------
[---------------------------------------------------

En toda la cancion se tok un arpegio q acompaña a La 
electrica

      Do        Lam      Fa        Do
[------0---------0--------1---------0-----------
[-----1-1-------1-1------1-1-------1-1----------
[----0---0-----2---2----2---2-----0---0---------
[-----------------------------------------------
[---3---------0------------------3--------------
[----------------------1------------------------

      Fa        Do         Fa        Sol 
[------1---------0----------1---------3----------
[-----1-1-------1-1--------1-1-------3-3---------
[----2---2-----0---0------2---2-----0---0--------
[------------------------------------------------
[-------------3----------------------------------
[---1--------------------1---------3-------------

Do                 Lam
Recuerdas mi amor  varios años atrás
Fa                   Do
Cuando nos conocimos en la barra de un bar
Fa                    Do
Tu estabas saboreando un riquísimo tamal
Fa                      Sol 
Con harta salsa criolla y una jarra de cerveza

Do                Lam
Desde aquella vez siempre salimos a comer
Fa                Do
De día de noche y en el lonche también
Fa                Do
Te has convertido en una marrana gigantesca
Fa                 Sol 
Comas lo que comas ya nada te indigesta

Do                      Lam
Te encanta el tacu tacu y tú lomo saltao
Fa                   Do
Te empujas picarones helados y turrones
Fa                  Do
No quiero ni pensar en el tamaño de tus mojones
Fa                 Sol 
Me excita imaginar que me agarras y me comes


Por eso...
Do     Lam    Fa        Do
Lameme,Cómeme,Mastícame,Triturame
Fa     Do      Fa          Sol 
Pásame,Trágame,Digiéreme y cagame...

Do            Lam
lameme lameme comeme comeme
Fa        Do
masticame triturame
Fa     Do
pasame tragame
Fa                Sol 
digiereme cagame cagame cagame cagame...

Aqui va el intro de nuevo
[-----------------------------------------------------------
[------1-3—3/5-3/5-3/5—3-1-3---1—-1-3------1-3-3/5-5-3-1-3--
[----2--------------------------------2--2------------------
[-----------------------------------------------------------
[-----------------------------------------------------------
[-----------------------------------------------------------

[---------------------------------------------------
[----1-3-3/5-5-3-1-3-1-----1-3-3/5-5-5555-1-33333---
[--2---------------------2--------------------------
[---------------------------------------------------
[---------------------------------------------------
[---------------------------------------------------

Las notas son las mismas en toda la cancion y con el mismo
arpegio

Adoro la manera en que puedes engullirte
40 salchipapas y una fuente de ceviche
No usas sal de andrews nunca has tenido colitis
Tú estomago y tu colon nada saben de gastritis

Me gusta como huele el aroma de tus chanchos
A choro a la chalaca y fréjoles con pescado
Me comería tus rollos y tu calzón cagado
Me gustaría llevarme tus pedos envasados

Te empujas 100 chorizos 100 churrascos y morsillas
Eso te ah generado toda clase de espinillas
Me comería tus granos untado cual mantequilla
Y luego como postre tus orines con vainilla

Por eso...
Lameme,
Cómeme
Mastícame,
triturame,
Pásame,
Trágame,
Digiéreme,
Y cagame...

lameme lameme
comeme comeme
masticame triturame
pasame tragame
digiereme cagame cagame cagame cagame...

Pero solo de amor
Cagame solo de amor
Pero solo de amor
Cagame solo de amor
Pero solo de amor
Cagame solo de amor


[------------------------
[----1-3/5-555-3-1-3-1---
[--2---------------------
[------------------------
[------------------------
esto de aqui dos veces
 

Comentarios del colaborador: Adder: esto ba para todos los tarados ke tienes jermas gordas hoig hoig jej:P

Calificar esta versión:
Aviso: Este fichero es trabajo propio de su transcriptor y representa su interpretación personal de la canción. El material contenido en esta página es para exclusivo uso privado, por lo que se prohibe su reproducción o retransmisión, así como su uso para fines comerciales.